F chords for guitar

F → F13

Chords in F

All F chords are derived from the F Major Scale which consists of 1 flat - Bb, and reads: F - G - A - Bb - C - D - E

E Major key signature
Scale of F Major
F G A Bb C D E
1st 2nd 3rd 4th 5th 6th 7th
  9th   11th   13th  

F - F major (1-3-5)

Spelling: 1st(F), 3rd(A), 5th(C)
           F   
    e|-1-|---|---|
    B|-1-|---|---|
    G|---|-2-|---|
    D|---|---|-3-|R
    A|---|---|---|X
    E|---|---|---|X
Frets  1   2   3
           F   
    e|-1-|---|---|
    B|-1-|---|---|
    G|-1-|-2-|---|
    D|-1-|---|-4-|
    A|-1-|---|-3-|
    E|-1-|---|---|R
Frets  1   2   3
             F
    e|-1-|---|---|---|
    B|-1-|-2-|---|---|
    G|-1-|---|---|---|
    D|---|---|-3-|---|
    A|---|---|---|-4-|R
    E|---|---|---|---|X
Frets  5   6   7   8
           F
    e|-1-|---|-----|
    B|-1-|---|-3-4-|
    G|-1-|---|-3-3-|
    D|-1-|---|-3-2-|
    A|-1-|---|-----|R
    E|---|---|-----|X
Frets  8   9  10

F7 - F seventh (1-3-5-b7)

Spelling: 1st(F), 3rd (A), 5th(C), b7th(Eb)
            F7   
    e|-1-|---|---|---|
    B|-1-|---|---|(4)|
    G|-1-|-2-|---|---|
    D|-1-|---|---|---|
    A|-1-|---|-3-|---|
    E|-1-|---|---|---|R
Frets  1   2   3   4
          F7
    e|---|---|---|X
    B|-1-|---|---|
    G|---|---|-4-|
    D|---|-2-|---|
    A|---|---|-3-|R
    E|---|---|---|X
Frets  6   7   8
          F7
    e|-1-|---|---|
    B|-1-|---|-4-|
    G|-1-|---|---|
    D|-1-|---|-3-|
    A|-1-|---|---|
    E|---|---|---|R
Frets  8   9  10

Fm - F minor (1-b3-5)

Spelling: 1st(F), b3rd (Ab), 5th(C)
          Fm 
    e|-1-|---|---| 
    B|-1-|---|---|
    G|-1-|---|---|
    D|-1-|---|-4-|
    A|-1-|---|-3-|
    E|-1-|---|---|R
Frets  1   2   3
            Fm    
    e|---|-2-|---|---|
    B|---|---|---|-4-|
    G|---|---|-3-|---|
    D|-1-|---|---|---|R
    A|---|---|---|---|X
    E|---|---|---|---|X
Frets  3   4   5   6
          Fm
    e|-1-|---|---|
    B|-1-|-2-|---|
    G|-1-|---|-4-|
    D|-1-|---|-3-|
    A|-1-|---|---|R
    E|---|---|---|X
Frets  8   9  10

Fm7 - F minor seventh (1-b3-5-b7)

Spelling: 1st(F), b3rd (Ab), 5th(C), b7th(Eb)
            Fm7 
    e|-1-|---|---|---|
    B|-1-|---|---|(4)|
    G|-1-|---|---|---|
    D|-1-|---|---|---|
    A|-1-|---|-3-|---|
    E|-1-|---|---|---|R
Frets  1   2   3   4
          Fm7
    e|---|-3-|---|
    B|---|-2-|---|
    G|---|---|-4-|
    D|-1-|---|---|R
    A|---|---|---|X
    E|---|---|---|X
Frets  3   4   5
          Fm7
    e|-1-|---|---|
    B|-1-|-2-|---|
    G|-1-|---|---|
    D|-1-|---|-3-|
    A|-1-|---|---|R
    E|---|---|---|X
Frets  8   9  10

Fmaj7 (F Δ 7 ) - F major seventh (1-3-5-7)

Spelling: 1st(F), 3rd(A), 5th(C), 7th(E)
         Fmaj7 
    e|---|---|---|
    B|-1-|---|---|
    G|---|-2-|---|
    D|---|---|-3-|R
    A|---|---|---|X
    E|---|---|---|X
Frets  1   2   3
           Fmaj7    
    e|-1-|---|---|---| 
    B|-1-|---|---|---|
    G|-1-|---|---|---|
    D|---|---|-3-|---|
    A|---|---|---|-4-|R
    E|---|---|---|---|
Frets  5   6   7   8
         Fmaj7
    e|-1-|---|---|
    B|-1-|---|-4-|
    G|-1-|-2-|---|
    D|-1-|---|-3-|
    A|-1-|---|---|R
    E|---|---|---|X
Frets  8   9  10

Fsus4 (F sus) - F suspended fourth (1-4-5)

Spelling: 1st(F), 4th(Bb), 5th(C) - No third
         Fsus4 
    e|-1-|---|---|
    B|-1-|---|---|
    G|-1-|---|-4-|
    D|-1-|---|-3-|
    A|-1-|---|---|
    E|-1-|---|---|R
Frets  1   2   3   
           Fsus4    
    e|---|---|---|---|X
    B|---|-2-|---|---|
    G|-1-|---|---|---|
    D|---|---|---|-4-|
    A|---|---|---|-3-|R
    E|---|---|---|---|X
Frets  5   6   7   8
          Fsus4
    e|-1-|---|---|---|
    B|-1-|---|---|-4-|
    G|-1-|---|-3-|---|
    D|-1-|---|-2-|---|
    A|-1-|---|---|---|R
    E|---|---|---|---|X
Frets  8   9  10  11

F7sus4 (F7+4) - F seventh suspended fourth (1-4-5-b7)

Spelling: 1st(F), 4th(Bb), 5th(C), b7th(Eb) - No third
        F7sus4 
    e|-1-|---|---|
    B|-1-|---|---|
    G|-1-|---|-4-|
    D|-1-|---|---|
    A|-1-|---|-3-|
    E|-1-|---|---|R
Frets  1   2   3
        F7sus4    
    e|---|---|---|X
    B|-1-|---|---|
    G|---|---|-4-|
    D|---|---|-3-|
    A|---|---|-2-|R
    E|---|---|---|X
Frets  6   7   8
          F7sus4
    e|-1-|---|---|---|
    B|-1-|---|---|-4-|
    G|-1-|---|---|---|
    D|-1-|---|-3-|---|
    A|-1-|---|---|---|R
    E|---|---|---|---|X
Frets   8  9  10  11

F6 - F sixth (1-3-5-6)

Spelling: 1st(F), 3rd(A), 5th(C), 6th(D)
          F6  
    e|-1-|---|---| 
    B|-1-|---|-4-|
    G|-1-|-2-|---|
    D|-1-|---|-3-|
    A|-1-|---|---|X
    E|-1-|---|---|R
Frets  1   2   3
          F6
    e|---|---|---|X
    B|-1-|---|---|
    G|---|-3-|---|
    D|---|-2-|---|
    A|---|---|-4-|R
    E|---|---|---|X
Frets  6   7   8
          F6    
    e|---|---|-3-|
    B|---|---|-3-|
    G|---|---|-3-|
    D|---|---|-3-|
    A|-1-|---|---|R
    E|---|---|---|X
Frets  8   9  10

Fm6 - F minor sixth (1-b3-5-6)

Spelling: 1st(F), b3rd(Ab), 5th(C), 6th(D)
          Fm6  
    e|-1-|---|---|
    B|-1-|---|-4-|
    G|-1-|---|---|
    D|-1-|---|-3-|
    A|-1-|---|---|X 
    E|-1-|---|---|R
Frets  1   2   3
          Fm6
    e|---|---|---|X
    B|-1-|---|---|
    G|-1-|-2-|---|
    D|-1-|---|---|
    A|---|---|-3-|R
    E|---|---|---|X
Frets  6   7   8
          Fm6    
    e|---|---|-4-|
    B|---|-2-|---|
    G|---|---|-3-|
    D|---|---|(3)|X
    A|-1-|---|---|R
    E|---|---|---|X
Frets  8   9  10

F9 - F ninth (1-3-5-b7-9)

Spelling: 1st(F), 3rd(A), 5th(C), b7th(Eb), 9th(G)
          F9 
    e|-4-|---|---|
    B|-3-|---|---|
    G|---|---|---|
    D|-2-|---|---|
    A|---|---|---|
    E|-1-|---|---|R
Frets  1   2   3
          F9    
    e|-1-|---|---
    B|-1-|-2-|---|
    G|-1-|---|-3-|
    D|-1-|---|---|R
    A|---|---|---|X
    E|---|---|---|X
Frets  3   4   5
          F9
    e|---|(4)|---|X
    B|---|-4-|---|
    G|---|-3-|---|
    D|-1-|---|---|
    A|---|-2-|---|R
    E|---|---|---|X
Frets  7   8   9

Fm9 - F minor ninth (1-b3-5-b7-9)

Spelling: 1st(F), b3rd(Ab), 5th(C), b7th(Eb), 9th(G)
          Fm9 
    e|-1-|---|-4-|
    B|-1-|---|---|
    G|-1-|---|---|
    D|-1-|---|---|
    A|-1-|---|-3-|
    E|-1-|---|---|R
Frets  1   2   3
          Fm9    
    e|-1-|---|---|
    B|-1-|-2-|---|
    G|-1-|---|-3-|
    D|-1-|---|---|R
    A|---|---|---|X
    E|---|---|---|X
Frets  3   4   5
          Fm9
    e|---|---|(4)|X
    B|---|---|-4-|
    G|---|---|-3-|
    D|-1-|---|---|
    A|---|---|-2-|R
    E|---|---|---|X
Frets  6   7   8

Fmaj9 (F  ⃤  9 ) - F major ninth (1-3-5-7-9)

Spelling: 1st(F), 3rd(A), 5th(C), 7th(E), 9th(G)
         Fmaj9 
    e|---|---|---|
    B|-2-|---|---|
    G|---|---|---|
    D|---|---|-4-|
    A|---|---|---|
    E|-1-|---|---|R
Frets  1   2   3
           Fmaj9    
    e|-1-|---|---|---|
    B|-1-|---|---|---|
    G|-1-|---|---|---|
    D|-1-|---|---|---|
    A|---|---|---|-4-|R
    E|---|---|---|---|X
Frets  5   6   7   8
         Fmaj9
    e|---|---|---|X
    B|---|-3-|---|
    G|---|---|-4-|
    D|-1-|---|---|
    A|---|-2-|---|R
    E|---|---|---|X
Frets  7   8   9

F6/9 - F six 9 OR F major sixth added ninth (1-3-5-6-9)

Spelling: 1st(F), 3rd(A), 5th(C), 6th(D), 9th(G)
         F6/9 
    e|-3-|---|---|
    B|-2-|---|---|
    G|---|---|---|
    D|---|---|---|
    A|---|---|---|
    E|-1-|---|---|R
Frets  1   2   3
         F6/9    
    e|---|-4-|---| 
    B|---|-3-|---|
    G|-1-|---|---|
    D|---|-2-|---|R
    A|---|---|---|X
    E|---|---|---|X
Frets  2   3   4
         F6/9
    e|---|-4-|---|
    B|---|-3-|---|
    G|-1-|---|---|
    D|-1-|---|---|
    A|---|-2-|---|R
    E|---|---|---|X
Frets  7   8   9

F7+9 - F seventh augmented ninth (1-3-5-b7-#9)

Spelling: 1st(F), 3rd(A), 5th(C), b7th(Eb), 9th(G#)
           F7+9 
    e|-1-|---|---|-4-|
    B|-1-|---|---|---|
    G|-1-|-2-|---|---|
    D|-1-|---|---|---|
    A|-1-|---|-3-|---|
    E|-1-|---|---|---|R
Frets  1   2   3   4   
         F7+9    
    e|---|---|-4-|  
    B|---|---|-3-|
    G|-1-|---|---|
    D|---|-2-|---|R
    A|---|---|---|X
    E|---|---|---|X
Frets  2   3   4
         F7+9
    e|---|---|---|X
    B|---|---|-4-|
    G|---|-3-|---|
    D|-1-|---|---|
    A|---|-2-|---|R
    E|---|---|---|X
Frets  7   8   9

F7-9 F seventh flat nine or F seventh minor ninth (1-3-5-b7-b9)

Spelling: 1st(F), 3rd(A), 5th(C), b7th(Eb), 9th(Gb)
         F7-9 
    e|-1-|-3-|---|
    B|-1-|---|---|
    G|-1-|-2-|---|
    D|-1-|---|---|
    A|---|---|---|X
    E|-1-|---|---|R
Frets  1   2   3
         F7-9    
    e|-1-|---|---|
    B|-1-|---|-3-|
    G|-1-|---|---|
    D|---|-2-|---|R
    A|---|---|---|X
    E|---|---|---|X
Frets  2   3   4
         F7-9
    e|---|---|---|X
    B|-1-|---|---|
    G|-1-|-3-|---|
    D|-1-|---|---|
    A|---|-2-|---|R
    E|---|---|---|X
Frets  7   8   9

Faug (F+) - F augmented (1-3-#5)

Spelling: 1st(F), 3rd(A), #5th(C#)
         Faug 
    e|---|---|---|X
    B|-1-|---|---|
    G|-1-|---|---|
    D|---|-2-|---|
    A|---|---|-3-|
    E|---|---|---|X
Frets        ← 4
             ← 8
             ← 12

Note: Start 3rd finger 
on frets 4, 8 or 12 and
work backwards with 
fingers 2 and 1. 
           Faug    
    e|---|---|---|---|X
    B|---|---|---|---|X
    G|-1-|---|---|---|
    D|---|-2-|---|---|
    A|---|---|-3-|---|
    E|---|---|---|-4-|
Frets            ← 5 
                 ← 9
                 ← 13  

Note: Start 4th finger 
on frets 5, 9 or 13 and
work backwards with 
fingers 3, 2 and 1.
         Faug
    e|-1-|---|---|
    B|---|-3-|---|
    G|---|-2-|---|
    D|---|---|-4-|
    A|---|---|---|X
    E|---|---|---|X
Frets  1 →
       5 →
       9 →
       
Note: Start 1st finger 
on frets 1, 5 or 9
and proceed normally
as illustrated.
More on augmented chords and why they can be played using similar shapes in a variety of positions.

F7+5 - F seventh augmented fifth (1-3-#5-b7)

Spelling: 1st(F), 3rd(A), #5th(C#), b7th(Eb)
         F7+5 
    e|-1-|---|---|
    B|-1-|-3-|---|
    G|-1-|-2-|---|
    D|-1-|---|---|
    A|---|---|---|X
    E|-1-|---|---|R
Frets  1   2   3
         F7+5    
    e|---|---|---|X
    B|-1-|---|---|
    G|-1-|---|---|
    D|-1-|-2-|---|
    A|-1-|---|---|R
    E|---|---|---|X
Frets  6   7   8
           F7+5
    e|---|-2-|---|---|
    B|---|---|-3-|---|
    G|-1-|---|---|---|
    D|-1-|---|---|-4-|
    A|-1-|---|---|---|R
    E|---|---|---|---|X
Frets  8   9  10  11

Fdim (Fº) - F diminished (1-b3-b5)

Spelling: 1st(F), b3rd(Ab), b5th(B)
         Fdim 
    e|---|---|---|X
    B|---|---|---|X
    G|-2-|---|---|
    D|---|---|-4-|
    A|---|-3-|---|
    E|-1-|---|---|R
Frets  1   2   3
         Fdim    
    e|---|---|---|X
    B|---|-3-|---|
    G|---|---|-4-|
    D|---|-2-|---|
    A|-1-|---|---|R
    E|---|---|---|X
Frets  8   9  10
           Fdim
    e|---|-3-|---|---|
    B|-1-|---|---|---|
    G|---|-2-|---|---|
    D|---|---|---|-4-|R
    A|---|---|---|---|X
    E|---|---|---|---|X
Frets 12  13  14  15

Fdim7 (Fº7) - F diminished seventh (1-b3-b5-bb7)

Spelling: 1st(F), b3rd(Ab), b5th(B), bb7th(D)
         Fdim7 
    e|---|---|---|X
    B|---|---|---|X
    G|---|-3-|---|
    D|-1-|---|---|
    A|---|---|-4-|
    E|---|-2-|---|
Frets      ↑ 
1, 4, 7, 10

Note: Start 2nd finger 
on frets 1, 4, 7 or 10 
and follow the shape. 
         Fdim7    
    e|---|---|---|X
    B|---|---|-4-|
    G|-1-|---|---|
    D|---|---|-3-|
    A|---|-2-|---|
    E|---|---|---|X
Frets      ↑ 
2, 5, 8, 11  

Note: Start 2nd finger 
on frets 2, 5, 8 or 11 
and follow the shape.
         Fdim7
    e|---|-4-|---|
    B|-2-|---|---|
    G|---|-3-|---|
    D|-1-|---|---|
    A|---|---|---|X
    E|---|---|---|X
Frets      ↑ 
1, 4, 7, 10

Note: Start 3rd finger 
on frets 1, 4, 7 or 10 
and follow the shape.
More on diminished 7th chords and why they can be played using similar shapes in a variety of positions.

F-5 F diminished fifth (1-3-b5)

Spelling: 1st(F), 3rd(A), b5th(B)
          F-5
    e|---|---|---|X
    B|---|---|---|
    G|---|-3-|---|
    D|---|---|-4-|
    A|---|-2-|---|
    E|-1-|---|---|R
Frets  1   2   3
            F-5
    e|---|---|-3-|---|
    B|---|---|---|-4-|
    G|---|-2-|---|---|
    D|-1-|---|---|---|R
    A|---|---|---|---|X
    E|---|---|---|---|X
Frets  3   4   5   6
          F-5    
    e|---|---|---|X
    B|---|---|-4-|
    G|---|---|-3-|
    D|---|-2-|---|
    A|-1-|---|---|R
    E|---|---|---|X
Frets  8   9  10

F7-5 F seventh diminished fifth (1-3-b5-b7)

Spelling: 1st(F), 3rd(A), b5th(B), b7th(Eb)
         F7-5
    e|---|---|---|X 
    B|---|---|---|
    G|---|-4-|---|
    D|-2-|---|---|
    A|---|-3-|---| 
    E|-1-|---|---|R
Frets  1   2   3
         F7-5
    e|---|---|-4-| 
    B|---|-3-|---|
    G|---|-2-|---|
    D|-1-|---|---|R
    A|---|---|---|X 
    E|---|---|---|X
Frets  3   4   5
         F7-5    
    e|---|---|---|X 
    B|---|---|-3-| 
    G|-1-|---|---|
    D|-1-|-2-|---|
    A|-1-|---|---|R
    E|---|---|---|X
Frets  8   9  10

F9-5 F ninth diminished fifth (1-3-b5-b7-9)

Spelling: 1st(F), 3rd(A), b5th(B), b7th(Eb), 9th(G)
         F9-5
    e|-3-|---|---|
    B|---|---|---|
    G|---|---|---|
    D|-2-|---|---|
    A|---|---|---|
    E|-1-|---|---|R
Frets  1   2   3
         F9-5
    e|-1-|---|---|
    B|-1-|-3-|---|
    G|-1-|-2-|---|
    D|-1-|---|---|R
    A|---|---|---|X
    E|---|---|---|X
Frets  3   4   5
         F9-5    
    e|-1-|---|---|
    B|-1-|-4-|---|
    G|-1-|-3-|---|
    D|-1-|---|---|
    A|-1-|-2-|---|R
    E|-1-|---|---|
Frets  7   8   9

F11 - F eleventh (1-3-5-b7-9-11)

Spelling: 1st(F), 3rd(A), 5th(C), b7th(Eb), 9th(G), 11th(Bb)
            F11
    e|---|---|-1-|---|
    B|---|---|-1-|-2-|
    G|---|---|-1-|---|
    D|---|---|-1-|---|R
    A|---|---|(1)|---|X
    E|---|---|---|---|X
Frets  1   2   3   4
          F11
    e|-1-|---|---|
    B|-1-|---|---|
    G|-1-|---|---|
    D|-1-|---|---|
    A|-1-|---|---|R
    E|(1)|---|---|X
Frets  8   9  10
          F11    
    e|-1-|---|---|
    B|-1-|---|---|
    G|---|-2-|---|
    D|---|---|-4-|
    A|---|---|---|X
    E|---|---|-3-|R
Frets 11  12  13

F13 - F thirteenth (1-3-5-b7-9-11)

Spelling: 1st(F), 3rd(A), 5th(C), b7th(Eb), 9th(G), 13th(D)
          F13
    e|---|---|-4-|
    B|---|---|-3-|
    G|---|-2-|---|
    D|-1-|---|---|
    A|---|---|---|X
    E|-1-|---|---|R
Frets  1   2   3 
            F13
    e|---|---|---|-4-|
    B|---|-3-|---|---|
    G|---|-3-|---|---|
    D|-1-|---|---|---|
    A|---|-2-|---|---|R
    E|---|(2)|---|---|X
Frets  7   8   9  10
            F13    
    e|-1-|---|---|---|
    B|-1-|---|---|---|
    G|---|---|-2-|---|
    D|---|---|---|-4-|
    A|---|---|---|---|X
    E|---|---|---|-3-|R
Frets 10  11  12  13
Back to Guitar Chords

Contact Me


 RSS Icon