E chords for guitar

E → E13

Chords in E

All E chords are derived from the E Major Scale which consists of 4 sharps - F#, C#, G#, D# and reads: E - F# - G# - A - B - C# - D#

E Major key signature
Scale of E Major
E F# G# A B C# D#
1st 2nd 3rd 4th 5th 6th 7th
  9th   11th   13th  

E - E major (1-3-5)

Spelling: 1st(E), 3rd(G#), 5th(B)
           E
    e|---|---|---|
    B|---|---|---|
    G|-1-|---|---|
    D|---|-3-|---|
    A|---|-2-|---|
    E|---|---|---|R
Frets  1   2   3
             E
    e|-1-|---|---|---|
    B|-1-|-2-|---|---|
    G|-1-|---|---|---|
    D|---|---|-3-|---|
    A|---|---|---|-4-|
    E|---|---|---|---|R
Frets  4   5   6   7
             E    
    e|-1-|---|-----|
    B|-1-|---|-3-4-|
    G|-1-|---|-3-3-|
    D|-1-|---|-3-2-|
    A|-1-|---|-----|
    E|---|---|-----|R
Frets  7   8    9  

E7 - E seventh (1-3-5-b7)

Spelling: 1st(E), 3rd(G#), 5th(B), b7th(D)
          E7   
    e|---|---|---|
    B|---|---|(4)|
    G|-1-|---|---|
    D|---|(3)|---|
    A|---|-2-|---|
    E|---|---|---|R
Frets  1   2   3
          E7
    e|---|---|---|
    B|-1-|---|---|
    G|---|---|-4-|
    D|---|-2-|---|
    A|---|---|-3-|
    E|---|---|---|R
Frets  5   6   7
          E7
    e|-1-|---|---|
    B|-1-|---|-4-|
    G|-1-|---|---|
    D|-1-|---|-3-|
    A|-1-|---|---|
    E|---|---|---|R
Frets  7   8   9

Em - E minor (1-b3-5)

Spelling: 1st(E), b3rd(G), 5th(B)
          Em 
    e|---|---|---| 
    B|---|---|---|
    G|---|---|---|
    D|---|-2-|---|
    A|---|-1-|---|
    E|---|---|---|R
Frets  1   2   3
          Em    
    e|-1-|---|---|
    B|---|---|-4-|
    G|---|-2-|---|
    D|---|---|-3-|
    A|---|---|---|X
    E|---|---|---|R
Frets  3   4   5
          Em
    e|-1-|---|---|
    B|-1-|-2-|---|
    G|-1-|---|-4-|
    D|-1-|---|-3-|
    A|-1-|---|---|
    E|---|---|---|R
Frets  7   8   9

Em7 - E minor seventh (1-b3-5-b7)

Spelling: 1st(E), b3rd(G), 5th(B), b7th(D)
          Em7 
    e|---|---|---|
    B|---|---|-4-|
    G|---|---|---|
    D|---|(2)|---|
    A|---|-1-|---|
    E|---|---|---|R
Frets  1   2   3
         Em7
    e|---|---|---|
    B|-1-|---|---|
    G|---|-2-|---|
    D|---|---|-3-|
    A|---|---|---|X
    E|---|---|---|R
Frets  3   4   5
            Em7
    e|-1-|---|---|(4)|
    B|-1-|-2-|---|---|
    G|-1-|---|---|---|
    D|-1-|---|-3-|---|
    A|-1-|---|---|---|
    E|---|---|---|---|R
Frets  7   8   9  10

Emaj7 (E Δ 7 ) - E major seventh (1-3-5-7)

Spelling: 1st(E), 3rd(G#), 5th(B), 7th(D#)
         Emaj7 
    e|---|---|---|
    B|---|---|---|
    G|-2-|---|---|
    D|-1-|---|---| 
    A|---|-3-|---| 
    E|---|---|---|R
Frets  1   2   3
           Emaj7    
    e|-1-|---|---|---| 
    B|-1-|---|---|---|
    G|-1-|---|---|---|
    D|---|---|-3-|---|
    A|---|---|---|-4-|
    E|---|---|---|---|R
Frets  4   5   6   7
         Emaj7
    e|-1-|---|---|
    B|-1-|---|-4-|
    G|-1-|-2-|---|
    D|-1-|---|-3-|
    A|-1-|---|---|
    E|---|---|---|R
Frets  7   8   9

Esus4 (E sus) - E suspended fourth (1-4-5)

Spelling: 1st(E), 4th(A), 5th(B) - No third
         Esus4 
    e|---|---|---|
    B|---|---|---|
    G|---|-3-|---|
    D|---|-2-|---|
    A|---|-1-|---|
    E|---|---|---|R
Frets  1   2   3   
           Esus4    
    e|---|---|---|---|
    B|---|-2-|---|---|
    G|-1-|---|---|---|
    D|---|---|---|-4-|
    A|---|---|---|-3-|
    E|---|---|---|---|R
Frets  4   5   6   7
           Esus4
    e|---|---|---|-3-|
    B|---|-2-|---|---|
    G|-1-|---|---|---|
    D|-1-|---|---|---|
    A|---|---|---|---|X
    E|---|---|---|---|R
Frets  9  10  11  12

E7sus4 (E7+4) - E seventh suspended fourth (1-4-5-b7)

Spelling: 1st(E), 4th(A), 5th(B), b7th(D) - No third
        E7sus4 
    e|---|---|---|
    B|---|---|---|
    G|---|-3-|---|
    D|---|---|---|
    A|---|-2-|---|
    E|---|---|---|R
Frets  1   2   3
          E7sus4    
    e|---|---|---|-4-|
    B|---|-2-|---|---|
    G|---|---|-3-|---|
    D|-1-|---|---|---|
    A|---|---|---|---|X
    E|---|---|---|---|R
Frets  2   3   4   5
          E7sus4
    e|-1-|---|---|---|
    B|-1-|---|---|-4-|
    G|-1-|---|---|---|
    D|-1-|---|-3-|---|
    A|-1-|---|---|---|
    E|---|---|---|---|R
Frets   7  8   9  10

E6 - E sixth (1-3-5-6)

Spelling: 1st(E), 3rd(G#), 5th(B), 6th(C#)
          E6  
    e|---|---|---| 
    B|---|-4-|---|
    G|-1-|---|---|
    D|---|-3-|---|
    A|---|-2-|---|
    E|---|---|---|R
Frets  1   2   3
          E6
    e|---|---|---|
    B|-1-|---|---|
    G|---|-3-|---|
    D|---|-2-|---|
    A|---|---|-4-|
    E|---|---|---|R
Frets  5   6   7
          E6    
    e|---|---|-3-|
    B|---|---|-3-|
    G|---|---|-3-|
    D|---|---|-3-|
    A|-1-|---|---|X
    E|---|---|---|R
Frets  7   8   9

Em6 - E minor sixth (1-b3-5-6)

Spelling: 1st(E), b3rd(G), 5th(B), 6th(C#)
          Em6  
    e|---|---|---|
    B|---|-4-|---|
    G|---|---|---|
    D|---|-3-|---|
    A|---|-2-|---| 
    E|---|---|---|R
Frets  1   2   3
          Em6
    e|---|---|---|
    B|-1-|---|---|
    G|-1-|-2-|---|
    D|-1-|---|---|
    A|---|---|-3-|
    E|---|---|---|R
Frets  5   6   7
          Em6    
    e|---|---|-4-|
    B|---|-2-|---|
    G|---|---|-3-|
    D|---|---|(3)|X
    A|-1-|---|---|
    E|---|---|---|R
Frets  7   8   9

E9 - E ninth (1-3-5-b7-9)

Spelling: 1st(E), 3rd(G#), 5th(B), b7th(D), 9th(F#)
          E9 
    e|---|-3-|---|
    B|---|---|-4-|
    G|-1-|---|---|
    D|---|---|---|
    A|---|-2-|---|
    E|---|---|---|R
Frets  1   2   3
          E9    
    e|---|---|---
    B|---|-4-|---|
    G|---|-3-|---|
    D|-1-|---|---|
    A|---|-2-|---|
    E|---|---|---|R
Frets  6   7   8
          E9
    e|---|---|---|
    B|---|-4-|---|
    G|-2-|---|---|
    D|---|-3-|---|
    A|-1-|---|---|
    E|---|---|---|R
Frets 11  12  13

Em9 - E minor ninth (1-b3-5-b7-9)

Spelling: 1st(E), b3rd(G), 5th(B), b7th(D), 9th(F#)
          Em9 
    e|---|-3-|---|
    B|---|---|-4-|
    G|---|---|---|
    D|---|-2-|---|
    A|---|-1-|---|
    E|---|---|---|R
Frets  1   2   3
          Em9    
    e|---|---|---|
    B|---|---|-4-|
    G|---|---|-3-|
    D|-1-|---|---|
    A|---|---|-2-|
    E|---|---|---|R
Frets  5   6   7
          Em9
    e|---|---|---|
    B|---|---|-4-|
    G|---|-2-|---|
    D|---|---|-3-|
    A|-1-|---|---|
    E|---|---|---|R
Frets 10  11  12

Emaj9 (E  ⃤  9 ) - E major ninth (1-3-5-7-9)

Spelling: 1st(E), 3rd(G#), 5th(B), 7th(D#), 9th(F#)
         Emaj9 
    e|---|-4-|---|
    B|---|---|---|
    G|-2-|---|---|
    D|-1-|---|---|
    A|---|-3-|---|
    E|---|---|---|R
Frets  1   2   3
           Emaj9    
    e|-1-|---|---|---|
    B|-1-|---|---|---|
    G|-1-|---|---|---|
    D|-1-|---|---|---|
    A|---|---|---|-4-|
    E|---|---|---|---|R
Frets  4   5   6   7
         Emaj9
    e|---|---|---|
    B|---|-3-|---|
    G|---|---|-4-|
    D|-1-|---|---|
    A|---|-2-|---|
    E|---|---|---|
Frets  6   7   8

E6/9 - E six 9 OR E major sixth added ninth (1-3-5-6-9)

Spelling: 1st(E), 3rd(G#), 5th(B), 6th(C#), 9th(F#)
         E6/9 
    e|---|-4-|---|
    B|---|-3-|---|
    G|-1-|---|---|
    D|---|-2-|---|
    A|---|(2)|---|X
    E|---|---|---|R
Frets  1   2   3
         E6/9    
    e|---|-4-|---| 
    B|---|-3-|---|
    G|-1-|---|---|
    D|-1-|---|---|
    A|---|-2-|---|
    E|---|---|---|R
Frets  6   7   8
         E6/9
    e|---|-3-|---|
    B|---|-2-|---|
    G|-1-|---|---|
    D|-1-|---|---|
    A|-1-|---|---|
    E|---|---|---|R
Frets 11  12  13

E7+9 - E seventh augmented ninth (1-3-5-b7-#9)

Spelling: 1st(E), 3rd(G#), 5th(B), b7th(D), 9th(G)
         E7+9 
    e|---|---|-4-|
    B|---|---|-3-|
    G|-1-|---|---|
    D|---|-2-|---|
    A|---|(2)|---|X
    E|---|---|---|R
Frets  1   2   3   
         E7+9    
    e|---|---|---|  
    B|---|---|-4-|
    G|---|-3-|---|
    D|-1-|---|---|
    A|---|-2-|---|
    E|---|---|---|R
Frets  6   7   8
         E7+9
    e|---|---|---|X
    B|---|-3-|---|
    G|---|-3-|---|
    D|---|-3-|---|
    A|-1-|---|---|
    E|---|---|---|R
Frets 11  12  13

E7-9 E seventh flat nine or E seventh minor ninth (1-3-5-b7-b9)

Spelling: 1st(E), 3rd(G#), 5th(B), b7th(D), 9th(F)
         E7-9 
    e|-2-|---|---|
    B|---|---|---|
    G|-1-|---|---|
    D|---|---|---|
    A|---|---|---|X
    E|---|---|---|R
Frets  1   2   3
         E7-9    
    e|---|---|---|X
    B|---|-1-|---|
    G|---|-1-|-3-|
    D|---|-1-|---|
    A|---|---|-2-|
    E|---|---|---|R
Frets  5   6   7
         E7-9
    e|---|---|---|
    B|---|---|---|
    G|-1-|---|---|
    D|---|---|-3-|
    A|---|-2-|---|
    E|---|---|---|R
Frets 10  11  12

Eaug (E+) - E augmented (1-3-#5)

Spelling: 1st(E), 3rd(G#), #5th(C)
         Eaug 
    e|---|---|---|X
    B|-1-|---|---|
    G|-1-|---|---|
    D|---|-2-|---|
    A|---|---|-3-|
    E|---|---|---|
Frets        ← 3
             ← 4
             ← 11

Note: Start 3rd finger 
on frets 3, 4 or 11 and
work backwards with 
fingers 2 and 1. 
           Eaug    
    e|---|---|---|---|X
    B|---|---|---|---|X
    G|-1-|---|---|---|
    D|---|-2-|---|---|
    A|---|---|-3-|---|
    E|---|---|---|-4-|
Frets            ← 4 
                 ← 8
                 ← 12  

Note: Start 4th finger 
on frets 4, 8 or 12 and
work backwards with 
fingers 3, 2 and 1.
         Eaug
    e|-1-|---|---|
    B|---|-3-|---|
    G|---|-2-|---|
    D|---|---|-4-|
    A|---|---|---|X
    E|---|---|---|
Frets  4 →
       8 →
      12 →
       
Note: Start 1st finger 
on frets 4, 5 or 12
and proceed normally
as illustrated.
More on augmented chords and why they can be played using similar shapes in a variety of positions.

E7+5 - E seventh augmented fifth (1-3-#5-b7)

Spelling: 1st(E), 3rd(G#), #5th(C), b7th(D)
         E7+5 
    e|---|---|---|
    B|-3-|---|---|
    G|-2-|---|---|
    D|---|---|---|
    A|---|---|---|X
    E|---|---|---|R
Frets  1   2   3
         E7+5    
    e|---|---|---|X
    B|-1-|---|---|
    G|-1-|---|---|
    D|-1-|-2-|---|
    A|-1-|---|---|
    E|---|---|---|R
Frets  5   6   7
           E7+5
    e|---|-2-|---|---|
    B|---|---|-3-|---|
    G|-1-|---|---|---|
    D|-1-|---|---|-4-|
    A|-1-|---|---|---|
    E|---|---|---|---|R
Frets  7   8   9  10

Edim (Eº) - E diminished (1-b3-b5)

Spelling: 1st(E), b3rd(G), b5th(Bb)
         Edim 
    e|---|---|---|X
    B|---|---|---|X
    G|---|---|---|
    D|---|-2-|---|
    A|-1-|---|---|
    E|---|---|---|R
Frets  1   2   3
         Edim    
    e|---|---|---|X
    B|---|-3-|---|
    G|---|---|-4-|
    D|---|-2-|---|
    A|-1-|---|---|R
    E|---|---|---|X
Frets  7   8   9
         Edim
    e|---|---|---|X
    B|---|---|---|X
    G|-2-|---|---|
    D|---|---|-4-|
    A|---|-3-|---|
    E|-1-|---|---|R
Frets 12  13  14

Edim7 (Eº7) - E diminished seventh (1-b3-b5-bb7)

Spelling: 1st(E), b3rd(G), b5th(Bb), bb7th(Db)
         Edim7 
    e|---|---|---|X
    B|---|---|---|X
    G|---|-3-|---|
    D|-1-|---|---|
    A|---|---|-4-|
    E|---|-2-|---|
Frets      ↑ 
3, 6, 9, 12

Note: Start 2nd finger 
on frets 3, 6, 9 or 12 
and follow the shape. 
         Edim7    
    e|---|---|---|X
    B|---|---|-4-|
    G|-1-|---|---|
    D|---|---|-3-|
    A|---|-2-|---|
    E|---|---|---|
Frets      ↑ 
1, 4, 7, 10  

Note: Start 2nd finger 
on frets 1, 4, 7 or 10 
and follow the shape.
         Edim7
    e|---|-4-|---|
    B|-2-|---|---|
    G|---|-3-|---|
    D|-1-|---|---|
    A|---|---|---|X
    E|---|---|---|
Frets      ↑ 
3, 6, 9, 12

Note: Start 3rd finger 
on frets 3, 6, 9 or 12 
and follow the shape.
More on diminished 7th chords and why they can be played using similar shapes in a variety of positions.

E-5 E diminished fifth (1-3-b5)

Spelling: 1st(E), 3rd(G#), b5th(Bb)
          E-5
    e|---|---|---|
    B|---|---|---|X
    G|-2-|---|---|
    D|---|-3-|---|
    A|-1-|---|---|
    E|---|---|---|R
Frets  1   2   3
            E-5
    e|---|---|-3-|---|
    B|---|---|---|-4-|
    G|---|-2-|---|---|
    D|-1-|---|---|---|
    A|---|---|---|---|X
    E|---|---|---|---|R
Frets  2   3   4   5
          E-5    
    e|---|---|---|
    B|---|---|-4-|
    G|---|---|-3-|
    D|---|-2-|---|
    A|-1-|---|---|
    E|---|---|---|R
Frets  7   8   9

E7-5 E seventh diminished fifth (1-3-b5-b7)

Spelling: 1st(E), 3rd(G#), b5th(Bb), b7th(D)
         E7-5
    e|---|---|---| 
    B|---|---|---|X
    G|-2-|---|---|
    D|---|---|---|
    A|-1-|---|---|R
    E|---|---|---|
Frets  1   2   3
         E7-5
    e|---|---|---|X
    B|---|---|-3-|
    G|-1-|---|---|
    D|-1-|-2-|---|
    A|-1-|---|---| 
    E|---|---|---|R
Frets  7   8   9
         E7-5    
    e|---|-3-|---| 
    B|-1-|---|---| 
    G|---|---|-4-|
    D|---|-2-|---|
    A|---|---|---|X
    E|---|---|---|R
Frets 11  12  13

E9-5 E ninth diminished fifth (1-3-b5-b7-9)

Spelling: 1st(E), 3rd(G#), b5th(Bb), b7th(D), 9th(F#)
           E9-5
    e|---|-1-|---|---|
    B|---|-1-|-3-|---|
    G|---|-1-|-2-|---|
    D|---|-1-|---|---|
    A|---|---|---|---|X
    E|---|---|---|---|R
Frets  1   2   3   4
         E9-5
    e|-1-|---|---|
    B|-1-|-4-|---|
    G|-1-|-3-|---|
    D|-1-|---|---|
    A|-1-|-2-|---|R
    E|-1-|---|---|
Frets  6   7   8
         E9-5    
    e|---|-3-|---|
    B|-1-|---|---|
    G|-1-|---|---|
    D|-1-|-2-|---|
    A|-1-|---|---|
    E|---|---|---|R
Frets 11  12  13

E11 - E eleventh (1-3-5-b7-9-11)

Spelling: 1st(E), 3rd(G#), 5th(B), b7th(D), 9th(F#), 11th(A)
          E11
    e|---|-1-|---|
    B|---|-1-|-2-|
    G|---|-1-|---|
    D|---|-1-|---|
    A|---|-1-|---|
    E|---|---|---|R
Frets  1   2   3
          E11
    e|-1-|---|---|
    B|-1-|---|---|
    G|-1-|---|---|
    D|-1-|---|---|
    A|-1-|---|---|
    E|---|---|---|R
Frets  7   8   9
          E11    
    e|---|---|---|
    B|-1-|---|---|
    G|---|-2-|---|
    D|---|---|-3-|
    A|---|---|---|X
    E|---|---|---|R
Frets 10  11  12

E13 - E thirteenth (1-3-5-b7-9-11)

Spelling: 1st(E), 3rd(G#), 5th(B), b7th(D), 9th(F#), 13th(C#)
          E13
    e|---|-3-|---|
    B|---|-2-|---|
    G|-1-|---|---|
    D|---|---|---|
    A|---|---|---|X
    E|---|---|---|R
Frets  1   2   3 
          E13
    e|---|---|---|-4-|
    B|---|-3-|---|---|
    G|---|-2-|---|---|
    D|-1-|---|---|---|
    A|---|---|---|---|X
    E|---|---|---|---|R
Frets  6   7   8   9
            E13    
    e|-1-|---|---|---|
    B|-1-|---|---|---|
    G|---|---|-3-|---|
    D|---|---|---|-4-|
    A|---|---|---|---|X
    E|---|---|---|---|R
Frets  9  10  11  12
Back to Guitar Chords

Contact Me


 RSS Icon