D chords for guitar

D → D13

Chords in D

All D chords are derived from the D Major Scale which consists of 2 sharps - F#, C# and reads: D - E - F# - G - A - B - C#

D Major key signature
Scale of D Major
D E F# G A B C#
1st 2nd 3rd 4th 5th 6th 7th
  9th   11th   13th  

D - D major (1-3-5)

Spelling: 1st(D), 3rd(F#), 5th(A)
           D
    e|---|-2-|---|
    B|---|---|-3-|
    G|---|-1-|---|
    D|---|---|---|R
    A|---|---|---|X
    E|---|---|---|X
Frets  1   2   3
           D
    e|-1-|---|----|
    B|-1-|---|-3-4|
    G|-1-|---|-3-3|
    D|-1-|---|-3-2|
    A|-1-|---|----|R
    E|---|---|----|X
Frets  5   6   7
           D    
    e|-1-|---|---|
    B|-1-|---|---|
    G|-1-|-2-|---|
    D|-1-|---|-4-|
    A|-1-|---|-3-|
    E|-1-|---|---|R
Frets 10  11   12  

D7 - D seventh (1-3-5-b7)

Spelling: 1st(D), 3rd(F#), 5th(A), b7th(C)
          D7   
    e|---|-3-|---|
    B|-1-|---|---|
    G|---|-2-|---|
    D|---|---|---|R
    A|---|---|---|X
    E|---|---|---|X
Frets  1   2   3
          D7
    e|-1-|---|---|
    B|-1-|---|-4-|
    G|-1-|---|---|
    D|-1-|---|-3-|
    A|-1-|---|---|R
    E|---|---|---|X
Frets  5   6   7
            D7
    e|-1-|---|---|---|
    B|-1-|---|---|(4)|
    G|-1-|-2-|---|---|
    D|-1-|---|(3)|---|
    A|-1-|---|-3-|---|
    E|-1-|---|---|---|R
Frets 10  11  12  13

Dm - D minor (1-b3-5)

Spelling: 1st(D), b3rd(F), 5th(A)
          Dm 
    e|-1-|---|---| 
    B|---|---|-3-|
    G|---|-2-|---|
    D|---|---|---|R
    A|---|---|---|X
    E|---|---|---|X
Frets  1   2   3
          Dm    
    e|-1-|---|---|
    B|-1-|-2-|---|
    G|-1-|---|-4-|
    D|-1-|---|-3-|
    A|-1-|---|---|R
    E|---|---|---|X
Frets  5   6   7
          Dm
    e|-1-|---|---|
    B|-1-|---|---|
    G|-1-|---|---|
    D|-1-|---|-4-|
    A|-1-|---|-3-|
    E|-1-|---|---|R
Frets 10  11  12

Dm7 - D minor seventh (1-b3-5-b7)

Spelling: 1st(D), b3rd(F), 5th(A), b7th(C)
          Dm7 
    e|-1-|---|---|
    B|-1-|---|---|
    G|---|-2-|---|
    D|---|---|---|R
    A|---|---|---|X
    E|---|---|---|X
Frets  1   2   3
            Dm7
    e|-1-|---|---|(4)|
    B|-1-|-2-|---|---|
    G|-1-|---|---|---|
    D|-1-|---|-3-|---|
    A|-1-|---|---|---|R
    E|---|---|---|---|X
Frets  3   4   5   6
            Dm7
    e|-1-|---|---|---|
    B|-1-|---|---|(4)|
    G|-1-|---|---|---|
    D|-1-|---|(3)|---|
    A|-1-|---|-3-|---|
    E|-1-|---|---|---|R
Frets  8   9  10  11

Dmaj7 (D Δ 7 ) - D major seventh (1-3-5-7)

Spelling: 1st(D), 3rd(F#), 5th(A), 7th(C#)
         Dmaj7 
    e|---|-1-|---|
    B|---|-1-|---|
    G|---|-1-|---|
    D|---|---|---|R
    A|---|---|---|X
    E|---|---|---|X
Frets  1   2   3
         Dmaj7    
    e|-1-|---|---| 
    B|-1-|---|-4-|
    G|-1-|-2-|---|
    D|-1-|---|-3-|
    A|-1-|---|---|R
    E|---|---|---|X
Frets  5   6   7
           Dmaj7
    e|-1-|---|---|---|
    B|---|-2-|---|---|
    G|---|---|-3-|---|
    D|---|---|---|-4-|R
    A|---|---|---|---|X
    E|---|---|---|---|X
Frets  9  10  11  12

Dsus4 (D sus) - D suspended fourth (1-4-5)

Spelling: 1st(D), 4th(G), 5th(A) - No third
         Dsus4 
    e|---|---|-4-|
    B|---|---|-3-|
    G|---|-1-|---|
    D|---|---|---|R
    A|---|---|---|X
    E|---|---|---|X
Frets  1   2   3   
           Dsus4    
    e|-1-|---|---|---|
    B|-1-|---|---|-4-|
    G|-1-|---|-3-|---|
    D|-1-|---|-2-|---|
    A|-1-|---|---|---|R
    E|---|---|---|---|X
Frets  3   4   5   6
         Dsus4
    e|-1-|---|---|
    B|-1-|---|---|
    G|-1-|---|-4-|
    D|-1-|---|-3-|
    A|-1-|---|---|
    E|-1-|---|---|R
Frets  8   9  10

D7sus4 (D7+4) - D seventh suspended fourth (1-4-5-b7)

Spelling: 1st(D), 4th(G), 5th(A), b7th(C) - No third
        D7sus4 
    e|---|---|-3-|
    B|-1-|---|---|
    G|---|-2-|---|
    D|---|---|---|R
    A|---|---|---|X
    E|---|---|---|X
Frets  1   2   3
          D7sus4    
    e|-1-|---|---|---|
    B|-1-|---|---|-4-|
    G|-1-|---|---|---|
    D|-1-|---|-3-|---|
    A|-1-|---|---|---|R
    E|---|---|---|---|X
Frets  5   6   7   8
        D7sus4
    e|-1-|---|---|
    B|-1-|---|---|
    G|-1-|---|-4-|
    D|-1-|---|---|
    A|-1-|---|-3-|
    E|-1-|---|---|R
Frets 10  11  12

D6 - D sixth (1-3-5-6)

Spelling: 1st(D), 3rd(F#), 5th(A), 6th(B)
          D6  
    e|---|-2-|---| 
    B|---|---|---|
    G|---|-1-|---|
    D|---|---|---|R
    A|---|---|---|X
    E|---|---|---|X
Frets  1   2   3
          D6
    e|---|---|-3-|
    B|---|---|-3-|
    G|---|---|-3-|
    D|---|---|-3-|
    A|-1-|---|---|R
    E|---|---|---|X
Frets  5   6   7
          D6    
    e|-1-|---|---|
    B|-1-|---|-4-|
    G|-1-|-2-|---|
    D|-1-|---|-3-|
    A|---|---|---|X
    E|-1-|---|---|R
Frets 10  11  12

Dm6 - D minor sixth (1-b3-5-6)

Spelling: 1st(D), b3rd(F), 5th(A), 6th(B)
          Dm6  
    e|-1-|---|---|
    B|---|---|---|
    G|---|-2-|---|
    D|---|---|---|R
    A|---|---|---|X
    E|---|---|---|X
Frets  1   2   3
          Dm6
    e|---|---|-4-|
    B|---|-2-|---|
    G|---|---|-3-|
    D|---|---|(3)|X
    A|-1-|---|---|R
    E|---|---|---|X
Frets  5   6   7
          Dm6    
    e|-1-|---|---|
    B|-1-|---|-4-|
    G|-1-|---|---|
    D|-1-|---|-3-|
    A|-1-|---|-2-|
    E|-1-|---|---|R
Frets 10  11  12

D9 - D ninth (1-3-5-b7-9)

Spelling: 1st(D), 3rd(F#), 5th(A), b7th(C), 9th(E)
            D9 
    e|---|---|---|---|
    B|-1-|---|---|---|
    G|---|-2-|---|---|
    D|---|---|---|(4)|
    A|---|---|---|---|X
    E|---|---|---|---|X
Frets  1   2   3   4
          D9    
    e|---|(4)|---|
    B|---|-4-|---|
    G|---|-3-|---|
    D|-1-|---|---|
    A|---|-2-|---|R
    E|---|---|---|X
Frets  4   5   6
          D9
    e|---|---|---|
    B|---|---|-4-|
    G|---|-2-|---|
    D|---|---|-3-|
    A|---|-1-|---|
    E|---|---|---|X
Frets  8   9  10

Dm9 - D minor ninth (1-b3-5-b7-9)

Spelling: 1st(D), b3rd(F), 5th(A), b7th(C), 9th(E)
            Dm9 
    e|---|---|---|---|
    B|-1-|---|---|---|
    G|---|-2-|---|---|
    D|---|---|(3)|---|
    A|---|---|---|---|X
    E|---|---|---|---|X
Frets  1   2   3   4
          Dm9    
    e|---|---|(4)|
    B|---|---|-4-|
    G|---|---|-3-|
    D|-1-|---|---|
    A|---|---|-2-|R
    E|---|---|---|X
Frets  3   4   5
          Dm9
    e|---|---|-4-|
    B|-1-|---|---|
    G|-1-|---|---|
    D|-1-|---|---|
    A|-1-|---|-3-|
    E|-1-|---|---|R
Frets 10  11  12

Dmaj9 (D  ⃤  9 ) - D major ninth (1-3-5-7-9)

Spelling: 1st(D), 3rd(F#), 5th(A), 7th(C#), 9th(E)
           Dmaj9 
    e|---|---|---|---|
    B|---|-2-|---|---|
    G|---|-1-|---|---|
    D|---|---|---|-4-|
    A|---|---|---|---|X
    E|---|---|---|---|X
Frets  1   2   3   4
         Dmaj9    
    e|---|---|---|X
    B|---|-3-|---|
    G|---|---|-4-|
    D|-1-|---|---|
    A|---|-2-|---|R
    E|---|---|---|X
Frets  4   5   6
           Dmaj9
    e|-1-|---|---|---|
    B|-1-|-2-|---|---|
    G|-1-|---|---|---|
    D|---|---|---|-4-|R
    A|---|---|---|---|X
    E|---|---|---|---|X
Frets  9  10  11  12

D6/9 - D six 9 OR D major sixth added ninth (1-3-5-6-9)

Spelling: 1st(D), 3rd(F#), 5th(A), 6th(B), 9th(E)
         D6/9 
    e|---|-4-|---|
    B|---|-3-|---|
    G|-1-|---|---|
    D|-1-|---|---|
    A|---|-2-|---|R
    E|---|---|---|X
Frets  4   5   6
         D6/9    
    e|---|-4-|---| 
    B|---|-3-|---|
    G|-1-|---|---|
    D|-1-|---|---|
    A|-1-|---|---|
    E|---|-2-|---|R
Frets  9  10  11
         D6/9
    e|---|-4-|---|
    B|---|-3-|---|
    G|-1-|---|---|
    D|---|-2-|---|R
    A|---|---|---|X
    E|---|---|---|X
Frets  9  10  11

D7+9 - D seventh augmented ninth (1-3-5-b7-#9)

Spelling: 1st(D), 3rd(F#), 5th(A), b7th(C), 9th(F)
         D7+9 
    e|---|---|---|X
    B|---|---|-4-|
    G|---|-3-|---|
    D|-1-|---|---|
    A|---|-2-|---|R
    E|---|---|---|X
Frets  4   5   6   
         D7+9    
    e|---|---|---|X 
    B|---|-3-|---|
    G|---|-3-|---|
    D|---|-3-|---|
    A|-1-|---|---|
    E|---|-2-|---|R
Frets  9  10  11
           D7+9
    e|---|---|---|-4-|
    B|-1-|---|---|---|
    G|-1-|-2-|---|---|
    D|-1-|---|---|---|
    A|-1-|---|-3-|---|
    E|-1-|---|---|---|R
Frets 10  11  12  13

D7-9 D seventh flat nine or D seventh minor ninth (1-3-5-b7-b9)

Spelling: 1st(D), 3rd(F#), 5th(A), b7th(C), 9th(Eb)
         D7-9 
    e|---|---|---|X
    B|---|-1-|---|
    G|---|-1-|-3-|
    D|---|-1-|---|
    A|---|---|-2-|R
    E|---|---|---|X
Frets  3   4   5
         D7-9    
    e|---|---|---|X
    B|---|---|---|X
    G|-1-|---|---|
    D|---|---|-4-|
    A|---|-2-|---|
    E|---|---|-3-|R
Frets  8   9  10
         D7-9
    e|---|-3-|---|
    B|-1-|---|---|
    G|-1-|-2-|---|
    D|-1-|---|---|
    A|---|---|---|X
    E|-1-|---|---|R
Frets 10  11  12

Daug (D+) - D augmented (1-3-#5)

Spelling: 1st(D), 3rd(F#), #5th(A#)
         Daug 
    e|---|---|---|X
    B|-1-|---|---|
    G|-1-|---|---|
    D|---|-2-|---|
    A|---|---|-3-|
    E|---|---|---|X
Frets        ← 5
             ← 9
             ← 13

Note: Start 3rd finger 
on frets 5, 9 or 13 and
work backwards with 
fingers 2 and 1. 
           Daug    
    e|---|---|---|---|X
    B|---|---|---|---|X
    G|-1-|---|---|---|
    D|---|-2-|---|---|
    A|---|---|-3-|---|
    E|---|---|---|-4-|
Frets            ← 6 
                 ← 10
                 ← 14  

Note: Start 4th finger 
on frets 6, 10 or 14 and
work backwards with 
fingers 3, 2 and 1.
         Daug
    e|-1-|---|---|
    B|---|-3-|---|
    G|---|-2-|---|
    D|---|---|-4-|
    A|---|---|---|X
    E|---|---|---|X
Frets  2 →
       6 →
      10 →
       
Note: Start 1st finger 
on frets 2, 6 or 10
and proceed normally
as illustrated.
More on augmented chords and why they can be played using similar shapes in a variety of positions.

D7+5 - D seventh augmented fifth (1-3-#5-b7)

Spelling: 1st(D), 3rd(F#), #5th(A#), b7th(C)
          D7+5 
    e|---|---|---|X
    B|---|-1-|---|R
    G|---|-1-|---|
    D|---|-1-|-2-|
    A|---|-1-|---|
    E|---|---|---|X
Frets  2   3   4
           D7+5    
    e|---|-2-|---|---|
    B|---|---|-3-|---|
    G|-1-|---|---|---|
    D|-1-|---|---|-4-|
    A|-1-|---|---|---|R
    E|---|---|---|---|X
Frets  5   6   7   8
         D7+5
    e|-1-|---|---|
    B|-1-|-3-|---|
    G|-1-|-2-|---|
    D|-1-|---|---|
    A|---|---|---|X
    E|-1-|---|---|R
Frets 10  11  12

Ddim (Dº) - D diminished (1-b3-b5)

Spelling: 1st(D), b3rd(F), b5th(Ab)
         Ddim 
    e|---|---|---|X
    B|---|-3-|---|
    G|---|---|-4-|
    D|---|-2-|---|
    A|-1-|---|---|R
    E|---|---|---|X
Frets  5   6   7
         Ddim    
    e|---|---|---|X
    B|---|---|---|X
    G|-2-|---|---|
    D|---|---|-4-|
    A|---|-3-|---|
    E|-1-|---|---|R
Frets 10  11  12
           Ddim
    e|---|-3-|---|---|
    B|-1-|---|---|---|
    G|---|-2-|---|---|
    D|---|---|---|-4-|R
    A|---|---|---|---|X
    E|---|---|---|---|X
Frets  9  10  11  12

Ddim7 (Dº7) - D diminished seventh (1-b3-b5-bb7)

Spelling: 1st(D), b3rd(F), b5th(Ab), bb7th(B)
         Ddim7 
    e|---|---|---|X
    B|---|---|---|X
    G|---|-3-|---|
    D|-1-|---|---|
    A|---|---|-4-|
    E|---|-2-|---|
Frets      ↑ 
1, 4, 7, 10

Note: Start 2nd finger 
on frets 1, 4, 7 or 10 
and follow the shape. 
         Ddim7    
    e|---|---|---|X
    B|---|---|-4-|
    G|-1-|---|---|
    D|---|---|-3-|
    A|---|-2-|---|
    E|---|---|---|X
Frets      ↑ 
2, 5, 8, 11  

Note: Start 2nd finger 
on frets 2, 5, 8 or 11 
and follow the shape.
         Ddim7
    e|---|-4-|---|
    B|-2-|---|---|
    G|---|-3-|---|
    D|-1-|---|---|
    A|---|---|---|X
    E|---|---|---|X
Frets      ↑ 
1, 4, 7, 10

Note: Start 3rd finger 
on frets 1, 4, 7 or 10 
and follow the shape.
More on diminished 7th chords and why they can be played using similar shapes in a variety of positions.

D-5 D diminished fifth (1-3-b5)

Spelling: 1st(D), 3rd(F#), b5th(Ab)
          D-5
    e|---|---|---|X
    B|---|---|-4-|
    G|---|---|-3-|
    D|---|-2-|---|
    A|-1-|---|---|R
    E|---|---|---|X
Frets  5   6   7
            D-5
    e|---|-2-|---|---|
    B|-1-|---|---|---|
    G|---|---|-3-|---|
    D|---|---|---|-4-|R
    A|---|---|---|---|X
    E|---|---|---|---|X
Frets  9  10  11  12
          D-5    
    e|---|---|---|X
    B|---|---|---|X
    G|---|-3-|---|
    D|---|---|-4-|
    A|---|-2-|---|
    E|-1-|---|---|R
Frets 10  11  12

D7-5 D seventh diminished fifth (1-3-b5-b7)

Spelling: 1st(D), 3rd(F#), b5th(Ab), b7th(C)
         D7-5
    e|---|---|---|X
    B|---|---|-3-|
    G|-1-|---|---|
    D|-1-|-2-|---|
    A|-1-|---|---|R
    E|---|---|---|X
Frets  5   6   7
         D7-5
    e|---|-3-|---|R
    B|-1-|---|---|
    G|---|---|-4-|
    D|---|-2-|---|
    A|---|---|---|X
    E|---|---|---|X
Frets  9  10  11
         D7-5    
    e|---|---|---|X
    B|---|---|---|X
    G|---|-4-|---|
    D|-2-|---|---|
    A|---|-3-|---|
    E|-1-|---|---|R
Frets 10  11  12

D9-5 D ninth diminished fifth (1-3-b5-b7-9)

Spelling: 1st(D), 3rd(F#), b5th(Ab), b7th(C), 9th(E)
         D9-5
    e|---|---|---|
    B|-2-|---|---|
    G|-1-|---|---|
    D|---|---|---|R
    A|---|---|---|X
    E|---|---|---|X
Frets  1   2   3
         D9-5
    e|-1-|---|---|
    B|-1-|-4-|---|
    G|-1-|-3-|---|
    D|-1-|---|---|
    A|-1-|-2-|---|R
    E|-1-|---|---|
Frets  4   5   6
          D9-5    
    e|---|-4-|---|
    B|-1-|---|---|
    G|-1-|---|---|
    D|-1-|-3-|---|
    A|-1-|---|---|
    E|---|-2-|---|R
Frets  9  10  11

D11 - D eleventh (1-3-5-b7-9-11)

Spelling: 1st(D), 3rd(F#), 5th(A), b7th(C), 9th(E), 11th(G)
          D11
    e|---|---|---|
    B|-1-|---|---|
    G|---|---|---|
    D|---|---|---|R
    A|---|---|---|
    E|---|---|---|X
Frets  1   2   3
          D11
    e|-1-|---|---|
    B|-1-|---|---|
    G|-1-|---|---|
    D|-1-|---|---|
    A|-1-|---|---|R
    E|---|---|---|X
Frets  5   6   7
          D11    
    e|-1-|---|---|
    B|-1-|---|---|
    G|---|-2-|---|
    D|---|---|-3-|
    A|---|---|---|X
    E|---|---|-4-|R
Frets  8   9  10

D13 - D thirteenth (1-3-5-b7-9-11)

Spelling: 1st(D), 3rd(F#), 5th(A), b7th(C), 9th(E), 13th(B)
            D13
    e|---|---|---|-4-|
    B|---|-3-|---|---|
    G|---|-3-|---|---|
    D|-1-|---|---|---|
    A|---|-2-|---|---|R
    E|---|(2)|---|---|X
Frets  4   5   6   7
          D13
    e|-1-|---|---|---|
    B|-1-|---|---|---|
    G|---|---|-2-|---|
    D|---|---|---|-4-|
    A|---|---|---|---|X
    E|---|---|---|-3-|R
Frets  7   8   9  10
            D13    
    e|---|---|-4-|
    B|---|---|-3-|
    G|---|-2-|---|
    D|-1-|---|---|
    A|---|---|---|X
    E|-1-|---|---|R
Frets 10  11  12
Back to Guitar Chords

Contact Me


 RSS Icon