C chords for guitar

C → C13

Chords in C

All C chords are derived from the C Major Scale which consists of no sharps or flats and reads: C - D - E - F - G - A - B

C Major key signature
Scale of C Major
C D E F G A B
1st 2nd 3rd 4th 5th 6th 7th
  9th   11th   13th  

C - C major (1-3-5)

Spelling: 1st(C), 3rd(E), 5th(G)
           C
    e|---|---|---|
    B|-1-|---|---|
    G|---|---|---|
    D|---|-2-|---|
    A|---|---|-3-|R
    E|---|---|---|X
Frets  1   2   3
           C
    e|-1-|---|----|
    B|-1-|---|-3-4|
    G|-1-|---|-3-3|
    D|-1-|---|-3-2|
    A|-1-|---|----|R
    E|---|---|----|X
Frets  3   4   5
           C    
    e|-1-|---|---|
    B|-1-|---|---|
    G|-1-|-2-|---|
    D|-1-|---|-4-|
    A|-1-|---|-3-|
    E|-1-|---|---|R
Frets  8   9   10  

C7 - C seventh (1-3-5-b7)

Spelling: 1st(C), 3rd(E), 5th(G), b7th(Bb)
          C7   
    e|---|---|---|
    B|-1-|---|---|
    G|---|---|-4-|
    D|---|-2-|---|
    A|---|---|-3-|R
    E|---|---|---|X
Frets  1   2   3
          C7
    e|-1-|---|---|
    B|-1-|---|-4-|
    G|-1-|---|---|
    D|-1-|---|-3-|
    A|-1-|---|---|R
    E|---|---|---|X
Frets  3   4   5
             C7
    e|-1-|---|---|---|
    B|-1-|---|---|(4)|
    G|-1-|-2-|---|---|
    D|-1-|---|(3)|---|
    A|-1-|---|-3-|---|
    E|-1-|---|---|---|R
Frets  8   9  10  11

Cm - C minor (1-b3-5)

Spelling: 1st(C), b3rd(Eb), 5th(G)
            Cm 
    e|---|---|---|X
    B|-2-|---|---|
    G|---|---|---|
    D|-1-|---|---|
    A|---|---|-4-|R
    E|---|---|---|X
Frets  1   2   3
          Cm    
    e|-1-|---|---|
    B|-1-|-2-|---|
    G|-1-|---|-4-|
    D|-1-|---|-3-|
    A|-1-|---|---|R
    E|---|---|---|X
Frets  3   4   5
          Cm
    e|-1-|---|---|
    B|-1-|---|---|
    G|-1-|---|---|
    D|-1-|---|-4-|
    A|-1-|---|-3-|
    E|-1-|---|---|R
Frets  8   9   10

Cm7 - C minor seventh (1-b3-5-b7)

Spelling: 1st(C), b3rd(Eb), 5th(G), b7th(Bb)
          Cm7 
    e|---|-4-|---|
    B|---|---|---|
    G|---|-3-|---|
    D|---|---|---|
    A|---|-2-|---|R
    E|---|(2)|---|X
Frets  1   2   3
              Cm7
    e|-1-|---|---|(4)|
    B|-1-|-2-|---|---|
    G|-1-|---|---|---|
    D|-1-|---|-3-|---|
    A|-1-|---|---|---|R
    E|---|---|---|---|X
Frets  3   4   5   6
          Cm7
    e|-1-|---|---|---|
    B|-1-|---|---|(4)|
    G|-1-|---|---|---|
    D|-1-|---|(3)|---|
    A|-1-|---|-3-|---|
    E|-1-|---|---|---|R
Frets  8   9  10  11

Cmaj7 (C Δ 7 ) - C major seventh (1-3-5-7)

Spelling: 1st(C), 3rd(E), 5th(G), 7th(B)
         Cmaj7 
    e|---|---|---|
    B|---|---|---|
    G|---|---|---|
    D|---|-2-|---|
    A|---|---|-3-|R
    E|---|---|---|X
Frets  1   2   3
         Cmaj7    
    e|-1-|---|---| 
    B|-1-|---|-4-|
    G|-1-|-2-|---|
    D|-1-|---|-3-|
    A|-1-|---|---|R
    E|---|---|---|X
Frets  3   4   5
             Cmaj7
    e|-1-|---|---|---|
    B|---|-2-|---|---|
    G|---|---|-3-|---|
    D|---|---|---|-4-|R
    A|---|---|---|---|X
    E|---|---|---|---|X
Frets  7   8   9  10

Csus4 (C sus) - C suspended fourth (1-4-5)

Spelling: 1st(C), 4th(F), 5th(G) - No third
         Csus4 
    e|-1-|---|---|
    B|-1-|---|---|
    G|---|---|---|
    D|---|---|-4-|
    A|---|---|-3-|R
    E|---|---|---|X
Frets  1   2   3   
           Csus4    
    e|-1-|---|---|---|
    B|-1-|---|---|-4-|
    G|-1-|---|-3-|---|
    D|-1-|---|-2-|---|
    A|-1-|---|---|---|R
    E|---|---|---|---|X
Frets  3   4   5   6
         Csus4
    e|-1-|---|---|
    B|-1-|---|---|
    G|-1-|---|-4-|
    D|-1-|---|-3-|
    A|-1-|---|---|
    E|-1-|---|---|R
Frets  8   9  10

C7sus4 (C7+4) - C seventh suspended fourth (1-4-5-b7)

Spelling: 1st(C), 4th(F), 5th(G), b7th(Bb) - No third
        C7sus4 
    e|---|---|---|X
    B|-1-|---|---|
    G|---|---|-4-|
    D|---|---|-3-|
    A|---|---|-2-|R
    E|---|---|---|X
Frets  1   2   3
          C7sus4    
    e|-1-|---|---|---|
    B|-1-|---|---|-4-|
    G|-1-|---|---|---|
    D|-1-|---|-3-|---|
    A|-1-|---|---|---|R
    E|---|---|---|---|X
Frets  3   4   5   6
        C7sus4
    e|-1-|---|---|
    B|-1-|---|---|
    G|-1-|---|-4-|
    D|-1-|---|---|
    A|-1-|---|-3-|
    E|-1-|---|---|R
Frets  8   9  10

C6 - C sixth (1-3-5-6)

Spelling: 1st(C), 3rd(E), 5th(G), 6th(A)
          C6  
    e|---|---|---| 
    B|-1-|---|---|
    G|---|-3-|---|
    D|---|-2-|---|
    A|---|---|-4-|R
    E|---|---|---|X
Frets  1   2   3
          C6
    e|---|---|-3-|
    B|---|---|-3-|
    G|---|---|-3-|
    D|---|---|-3-|
    A|-1-|---|---|R
    E|---|---|---|X
Frets  3   4   5
          C6    
    e|-1-|---|---|
    B|-1-|---|-4-|
    G|-1-|-2-|---|
    D|-1-|---|-3-|
    A|---|---|---|X
    E|-1-|---|---|R
Frets  8   9  10

Cm6 - C minor sixth (1-b3-5-6)

Spelling: 1st(C), b3rd(Eb), 5th(G), 6th(A)
          Cm6  
    e|---|---|-4-|
    B|-1-|---|---|
    G|-1-|-2-|---|
    D|-1-|---|---|
    A|---|---|-3-|R
    E|---|---|---|X
Frets  1   2   3
          Cm6
    e|---|---|-4-|
    B|---|-2-|---|
    G|---|---|-3-|
    D|---|---|(3)|X
    A|-1-|---|---|R
    E|---|---|---|X
Frets  3   4   5
          Cm6    
    e|-1-|---|---|
    B|-1-|---|-4-|
    G|-1-|---|---|
    D|-1-|---|-3-|
    A|-1-|---|-2-|
    E|-1-|---|---|R
Frets  8   9  10

C9 - C ninth (1-3-5-b7-9)

Spelling: 1st(C), 3rd(E), 5th(G), b7th(Bb), 9th(D)
            C9 
    e|---|---|(4)|---|
    B|---|---|-4-|---|
    G|---|---|-3-|---|
    D|---|-1-|---|---|
    A|---|---|-2-|---|R
    E|---|---|---|---|X
Frets  1   2   3   4
          C9    
    e|---|---|---|X
    B|---|---|-4-|
    G|---|-2-|---|
    D|---|---|-3-|
    A|---|-1-|---|
    E|---|---|---|X
Frets  6   7   8
          C9
    e|---|---|-4-|R
    B|---|---|-3-|
    G|---|-1-|---|
    D|---|---|-2-|
    A|---|---|---|X
    E|---|---|---|X
Frets  6   7   8

Cm9 - C minor ninth (1-b3-5-b7-9)

Spelling: 1st(C), b3rd(Eb), 5th(G), b7th(Bb), 9th(D)
            Cm9 
    e|---|---|(4)|---|X
    B|---|---|-4-|---|
    G|---|---|-3-|---|
    D|-1-|---|---|---|
    A|---|---|-2-|---|R
    E|---|---|---|---|X
Frets  1   2   3   4
          Cm9    
    e|---|---|---|X
    B|---|---|---|X
    G|---|-2-|---|
    D|---|---|-4-|
    A|-1-|---|---|
    E|---|---|-3-|R
Frets  6   7   8
          Cm9
    e|---|---|-4-|
    B|-1-|---|---|
    G|-1-|---|---|
    D|-1-|---|---|
    A|-1-|---|-3-|
    E|-1-|---|---|R
Frets  8   9  10

Cmaj9 (C  ⃤  9 ) - C major ninth (1-3-5-7-9)

Spelling: 1st(C), 3rd(E), 5th(G), 7th(B), 9th(D)
          Cmaj9 
    e|---|---|---|---|X
    B|---|---|-3-|---|
    G|---|---|---|-4-|
    D|---|-1-|---|---|
    A|---|---|-2-|---|R
    E|---|---|---|---|X
Frets  1   2   3   4
         Cmaj9    
    e|---|---|---|X
    B|---|---|---|X
    G|-1-|---|---|
    D|-1-|---|-3-|
    A|-1-|---|---|
    E|---|-2-|---|R
Frets  7   8   9
           Cmaj9
    e|-1-|---|---|---|
    B|-1-|-2-|---|---|
    G|-1-|---|---|---|
    D|---|---|---|-4-|R
    A|---|---|---|---|X
    E|---|---|---|---|X
Frets  6   7   8   9

C6/9 - C six 9 OR C major sixth added ninth (1-3-5-6-9)

Spelling: 1st(C), 3rd(E), 5th(G), 6th(A), 9th(D)
         C6/9 
    e|---|---|-4-|
    B|---|---|-3-|
    G|---|-1-|---|
    D|---|-1-|---|
    A|---|---|-2-|R
    E|---|---|---|X
Frets  1   2   3
         C6/9    
    e|---|-4-|---| 
    B|---|-3-|---|
    G|-1-|---|---|
    D|-1-|---|---|
    A|-1-|---|---|
    E|---|-2-|---|R
Frets  7   8   9
         C6/9
    e|---|-4-|---|
    B|---|-3-|---|
    G|-1-|---|---|
    D|---|-2-|---|R
    A|---|---|---|X
    E|---|---|---|X
Frets  9  10  11

C7+9 - C seventh augmented ninth (1-3-5-b7-#9)

Spelling: 1st(C), 3rd(E), 5th(G), b7th(Bb), 9th(D#)
         C7+9 
    e|---|---|---|---|X
    B|---|---|---|-4-|
    G|---|---|-3-|---|
    D|---|-1-|---|---|
    A|---|---|-2-|---|R
    E|---|---|---|---|X
Frets  1   2   3   4   
         C7+9    
    e|---|---|---|X 
    B|---|-3-|---|
    G|---|-3-|---|
    D|---|-3-|---|
    A|-1-|---|---|
    E|---|-2-|---|R
Frets  7   8   9
           C7+9
    e|---|---|---|-4-|
    B|-1-|---|---|---|
    G|-1-|-2-|---|---|
    D|-1-|---|---|---|
    A|-1-|---|-3-|---|
    E|-1-|---|---|---|R
Frets  8   9  10  11

C7-9 C seventh flat nine or C seventh minor ninth (1-3-5-b7-b9)

Spelling: 1st(C), 3rd(E), 5th(G), b7th(Bb), 9th(Db)
         C7-9 
    e|---|---|---|X
    B|---|-1-|---|
    G|---|-1-|-3-|
    D|---|-1-|---|
    A|---|---|-2-|R
    E|---|---|---|X
Frets  1   2   3
         C7-9    
    e|---|---|---|X
    B|---|---|---|X
    G|-1-|---|---|
    D|---|---|-4-|
    A|---|-2-|---|
    E|---|---|-3-|R
Frets  6   7   8
         C7-9
    e|---|-3-|---|
    B|-1-|---|---|
    G|-1-|-2-|---|
    D|-1-|---|---|
    A|---|---|---|X
    E|-1-|---|---|R
Frets  8   9  10

Caug (C+) - C augmented (1-3-#5)

Spelling: 1st(C), 3rd(E), #5th(G#)
         Caug 
    e|---|---|---|X
    B|-1-|---|---|
    G|-1-|---|---|
    D|---|-2-|---|
    A|---|---|-3-|
    E|---|---|---|X
Frets        ← 3
             ← 7
             ← 11

Note: Start 3rd finger 
on frets 3, 7 or 11 and
work backwards with 
fingers 2 and 1. 
           Caug    
    e|---|---|---|---|X
    B|---|---|---|---|X
    G|-1-|---|---|---|
    D|---|-2-|---|---|
    A|---|---|-3-|---|
    E|---|---|---|-4-|
Frets            ← 4 
                 ← 6
                 ← 12  

Note: Start 4th finger 
on frets 4, 6 or 12 and
work backwards with 
fingers 3, 2 and 1.
         Caug
    e|-1-|---|---|
    B|---|-3-|---|
    G|---|-2-|---|
    D|---|---|-4-|
    A|---|---|---|X
    E|---|---|---|X
Frets  4 →
       8 →
      12 →
       
Note: Start 1st finger 
on frets 4, 8 or 12
and proceed normally
as illustrated.
More on augmented chords and why they can be played using similar shapes in a variety of positions.

C7+5 - C seventh augmented fifth (1-3-#5-b7)

Spelling: 1st(C), 3rd(E), #5th(G#), b7th(Bb)
         C7+5 
    e|---|---|---|X
    B|-1-|---|---|R
    G|-1-|---|---|
    D|-1-|-2-|---|
    A|-1-|---|---|
    E|---|---|---|X
Frets  1   2   3
           C7+5    
    e|---|-2-|---|---|
    B|---|---|-3-|---|
    G|-1-|---|---|---|
    D|-1-|---|---|-4-|
    A|-1-|---|---|---|R
    E|---|---|---|---|X
Frets  3   4   5   6
         C7+5
    e|-1-|---|---|
    B|-1-|-3-|---|
    G|-1-|-2-|---|
    D|-1-|---|---|
    A|---|---|---|X
    E|-1-|---|---|R
Frets  8   9  10

Cdim (Cº) - C diminished (1-b3-b5)

Spelling: 1st(C), b3rd(Eb), b5th(Gb)
         Cdim 
    e|---|---|---|X
    B|---|-3-|---|
    G|---|---|-4-|
    D|---|-2-|---|
    A|-1-|---|---|R
    E|---|---|---|X
Frets  3   4   5
         Cdim    
    e|---|---|---|X
    B|---|---|---|X
    G|-2-|---|---|
    D|---|---|-4-|
    A|---|-3-|---|
    E|-1-|---|---|R
Frets  8   9  10
           Cdim
    e|---|-3-|---|---|
    B|-1-|---|---|---|
    G|---|-2-|---|---|
    D|---|---|---|-4-|R
    A|---|---|---|---|X
    E|---|---|---|---|X
Frets  7   8   9  10

Cdim7 (Cº7) - C diminished seventh (1-b3-b5-bb7)

Spelling: 1st(C), b3rd(Eb), b5th(Gb), bb7th(A)
         Cdim7 
    e|---|---|---|X
    B|---|---|---|X
    G|---|-3-|---|
    D|-1-|---|---|
    A|---|---|-4-|
    E|---|-2-|---|
Frets      ↑ 
2, 5, 8, 11

Note: Start 2nd finger 
on frets 2, 5, 8 or 11 
and follow the shape. 
         Cdim7    
    e|---|---|---|X
    B|---|---|-4-|
    G|-1-|---|---|
    D|---|---|-3-|
    A|---|-2-|---|
    E|---|---|---|X
Frets      ↑ 
3, 6, 9, 12  

Note: Start 2nd finger 
on frets 3, 6, 9 or 12 
and follow the shape.
         Cdim7
    e|---|-4-|---|
    B|-2-|---|---|
    G|---|-3-|---|
    D|-1-|---|---|
    A|---|---|---|X
    E|---|---|---|X
Frets      ↑ 
2, 5, 8, 11

Note: Start 3rd finger 
on frets 2, 5, 8 or 11 
and follow the shape.
More on diminished 7th chords and why they can be played using similar shapes in a variety of positions.

C-5 C diminished fifth (1-3-b5)

Spelling: 1st(C), 3rd(E), b5th(Gb)
          C-5
    e|---|---|---|X
    B|---|---|-4-|
    G|---|---|-3-|
    D|---|-2-|---|
    A|-1-|---|---|R
    E|---|---|---|X
Frets  3   4   5
            C-5
    e|---|-2-|---|---|
    B|-1-|---|---|---|
    G|---|---|-3-|---|
    D|---|---|---|-4-|R
    A|---|---|---|---|X
    E|---|---|---|---|X
Frets  7   8   9  10
          C-5    
    e|---|---|---|X
    B|---|---|---|X
    G|---|-3-|---|
    D|---|---|-4-|
    A|---|-2-|---|
    E|-1-|---|---|R
Frets  8   9  10

C7-5 C seventh diminished fifth (1-3-b5-b7)

Spelling: 1st(C), 3rd(E), b5th(Gb), b7th(Bb)
         C7-5
    e|---|---|---|X
    B|---|---|-3-|
    G|-1-|---|---|
    D|-1-|-2-|---|
    A|-1-|---|---|R
    E|---|---|---|X
Frets  3   4   5
         C7-5
    e|---|-3-|---|R
    B|-1-|---|---|
    G|---|---|-4-|
    D|---|-2-|---||
    A|---|---|---|X
    E|---|---|---|X
Frets  7   8   9
         C7-5    
    e|---|---|---|X
    B|---|---|---|X
    G|---|-4-|---|
    D|-2-|---|---|
    A|---|-3-|---|
    E|-1-|---|---|R
Frets  8   9  10

C9-5 C ninth diminished fifth (1-3-b5-b7-9)

Spelling: 1st(C), 3rd(E), b5th(Gb), b7th(Bb), 9th(D)
         C9-5
    e|---|-1-|---|
    B|---|-1-|-4-|
    G|---|-1-|-3-|
    D|---|-1-|---|
    A|---|-1-|-2-|R
    E|---|-1-|---|
Frets  1   2   3
         C9-5
    e|---|-4-|---|
    B|-1-|---|---|
    G|-1-|---|---|
    D|-1-|-3-|---|
    A|-1-|---|---|
    E|---|-2-|---|R
Frets  7   8   9
         C9-5    
    e|-1-|---|---|
    B|-1-|-3-|---|
    G|-1-|-2-|---|
    D|-1-|---|---|R
    A|---|---|---|X
    E|---|---|---|X
Frets 10  11  12

C11 - C eleventh (1-3-5-b7-9-11)

Spelling: 1st(C), 3rd(E), 5th(G), b7th(Bb), 9th(D), 11th(F)
          C11
    e|---|-1-|---|
    B|---|-1-|---|
    G|---|-1-|---|
    D|---|-1-|---|
    A|---|-1-|---|R
    E|---|---|---|X
Frets  2   3   4
          C11
    e|-1-|---|---|
    B|-1-|---|---|
    G|---|-2-|---|
    D|---|---|-4-|
    A|---|---|---|X
    E|---|---|-3-|R
Frets  6   7   8
          C11    
    e|-1-|---|---|
    B|-1-|-2-|---|
    G|-1-|---|---|
    D|-1-|---|---|R
    A|---|---|---|X
    E|---|---|---|X
Frets 10  11  12

C13 - C thirteenth (1-3-5-b7-9-11)

Spelling: 1st(C), 3rd(E), 5th(G), b7th(Bb), 9th(D), 13th(A)
            C13
    e|---|---|---|-4-|
    B|---|-3-|---|---|
    G|---|-3-|---|---|
    D|-1-|---|---|---|
    A|---|-2-|---|---|R
    E|---|(2)|---|---|X
Frets  2   3   4   5
            C13
    e|-1-|---|---|---|
    B|-1-|---|---|---|
    G|---|---|-2-|---|
    D|---|---|---|-4-|
    A|---|---|---|---|X
    E|---|---|---|-3-|R
Frets  5   6   7   8
          C13    
    e|---|---|-4-|
    B|---|---|-3-|
    G|---|-2-|---|
    D|-1-|---|---|
    A|---|---|---|X
    E|-1-|---|---|R
Frets  8   9  10
Back to Guitar Chords

Contact Me


 RSS Icon