B chords for guitar

B → B13

Chords in B

All B chords are derived from the B Major Scale which consists of 5 sharps - F#, C#, G#, D#, A# and reads: B - C# - D# - E - F# - G# - A#

B Major key signature
Scale of B Major
B C# D# E F# G# A#
1st 2nd 3rd 4th 5th 6th 7th
  9th   11th   13th  

B - B major (1-3-5)

Spelling: 1st(B), 3rd(D#), 5th(F#)
             B
    e|---|-1-|---|----|
    B|---|-1-|---|-4-3|
    G|---|-1-|---|-3-3|
    D|---|-1-|---|-2-3|
    A|---|-1-|---|----|R
    E|---|---|---|----|X
Frets  1   2   3   4
           B
    e|-1-|---|---|
    B|-1-|---|---|
    G|-1-|-2-|---|
    D|-1-|---|-4-|
    A|-1-|---|-3-|
    E|-1-|---|---|R
Frets  7   8   9
             B    
    e|---|---|-3-|---|
    B|---|---|---|-4-|R
    G|---|---|-2-|---|
    D|-1-|---|---|---|
    A|---|---|---|---|X
    E|---|---|---|---|X
Frets  9  10  11  12

B7 - B seventh (1-3-5-b7)

Spelling: 1st(B), 3rd(D#), 5th(F#), b7th(A)
          B7   
    e|---|-4-|---|
    B|---|---|---|
    G|---|-3-|---|
    D|-1-|---|---|
    A|---|-2-|---|R
    E|---|---|---|X
Frets  1   2   3
            B7
    e|---|-1-|---|---|
    B|---|-1-|---|-4-|
    G|---|-1-|---|---|
    D|---|-1-|---|-3-|
    A|---|-1-|---|---|R
    E|---|---|---|---|X
Frets  1   2   3   4
            B7
    e|-1-|---|---|---|
    B|-1-|---|---|(4)|
    G|-1-|-2-|---|---|
    D|-1-|---|(3)|---|
    A|-1-|---|-3-|---|
    E|-1-|---|---|---|R
Frets  7   8   9  10

Bm - B minor (1-b3-5)

Spelling: 1st(B), b3rd(D), 5th(F#)
            Bm 
    e|---|-1-|---|---|
    B|---|-1-|-2-|---|
    G|---|-1-|---|-4-|
    D|---|-1-|---|-3-|
    A|---|-1-|---|---|R
    E|---|---|---|---|X
Frets  1   2   3   4
          Bm    
    e|-1-|---|---|
    B|-1-|---|---|
    G|-1-|---|---|
    D|-1-|---|-4-|
    A|-1-|---|-3-|
    E|-1-|---|---|R
Frets  7   8   9
            Bm
    e|---|-2-|---|---|
    B|---|---|---|-4-|R
    G|---|---|-3-|---|
    D|-1-|---|---|---|
    A|---|---|---|---|X
    E|---|---|---|---|X
Frets  9  10  11  12

Bm7 - B minor seventh (1-b3-5-b7)

Spelling: 1st(B), b3rd(D), 5th(F#), b7th(A)
          Bm7 
    e|---|-4-|---|
    B|---|---|---|
    G|---|-3-|---|
    D|---|---|---|
    A|---|-2-|---|R
    E|---|---|---|X
Frets  1   2   3
            Bm7
    e|-1-|---|---|(4)|
    B|-1-|-2-|---|---|
    G|-1-|---|---|---|
    D|-1-|---|-3-|---|
    A|-1-|---|---|---|R
    E|---|---|---|---|X
Frets  2   3   4   5
            Bm7
    e|-1-|---|---|---|
    B|-1-|---|---|(4)|
    G|-1-|---|---|---|
    D|-1-|---|(3)|---|
    A|-1-|---|-3-|---|
    E|-1-|---|---|---|R
Frets  7   8   9  10

Bmaj7 (B Δ 7 ) - B major seventh (1-3-5-7)

Spelling: 1st(B), 3rd(D#), 5th(F#), 7th(A#)
         Bmaj7 
    e|---|-1-|---|---|
    B|---|-1-|---|-4-|
    G|---|-1-|-2-|---|
    D|---|-1-|---|-3-|
    A|---|-1-|---|---|R
    E|---|---|---|---|X
Frets  1   2   3   4
         Bmaj7    
    e|---|---|---|X
    B|-1-|---|---|
    G|-1-|-3-|---|
    D|-1-|-2-|---|
    A|-1-|---|-4-|
    E|-1-|---|---|R
Frets  7   8   9
           Bmaj7
    e|-1-|---|---|---|
    B|---|-2-|---|---|
    G|---|---|-3-|---|
    D|---|---|---|-4-|R
    A|---|---|---|---|X
    E|---|---|---|---|X
Frets  6   7   8   9

Bsus4 (B sus) - B suspended fourth (1-4-5)

Spelling: 1st(B), 4th(E), 5th(F#) - No third
           Bsus4 
    e|-1-|---|---|---|
    B|-1-|---|---|-4-|
    G|-1-|---|-3-|---|
    D|-1-|---|-2-|---|
    A|-1-|---|---|---|R
    E|---|---|---|---|X
Frets  2   3   4   5
           Bsus4    
    e|---|---|---|-4-|
    B|---|-2-|---|---|
    G|-1-|---|---|---|R
    D|-1-|---|---|---|
    A|---|---|---|---|X
    E|---|---|---|---|X
Frets  4   5   6   7
         Bsus4
    e|-1-|---|---|
    B|-1-|---|---|
    G|-1-|---|-4-|
    D|-1-|---|-3-|
    A|-1-|---|---|
    E|-1-|---|---|R
Frets  7   8   9

B7sus4 (B7+4) - B seventh suspended fourth (1-4-5-b7)

Spelling: 1st(B), 4th(E), 5th(F#), b7th(A) - No third
        B7sus4 
    e|---|---|---|
    B|---|---|---|
    G|---|-3-|---|
    D|---|-2-|---|
    A|---|-1-|---|R
    E|---|---|---|X
Frets  1   2   3
          B7sus4    
    e|-1-|---|---|---|
    B|-1-|---|---|-4-|
    G|-1-|---|---|---|
    D|-1-|---|-3-|---|
    A|-1-|---|---|---|R
    E|---|---|---|---|X
Frets  2   3   4   5
        B7sus4
    e|-1-|---|---|
    B|-1-|---|---|
    G|-1-|---|-4-|
    D|-1-|---|---|
    A|-1-|---|-3-|
    E|-1-|---|---|R
Frets  7   8   9

B6 - B sixth (1-3-5-6)

Spelling: 1st(B), 3rd(D#), 5th(F#), 6th(G#)
          B6  
    e|---|---|---|X
    B|---|---|---|
    G|-2-|---|---|
    D|-1-|---|---|
    A|---|-3-|---|R
    E|---|---|---|X
Frets  1   2   3
          B6
    e|---|---|-3-|
    B|---|---|-3-|
    G|---|---|-3-|
    D|---|---|-3-|
    A|-1-|---|---|R
    E|---|---|---|X
Frets  2   3   4
          B6    
    e|-1-|---|---|
    B|-1-|---|-4-|
    G|-1-|-2-|---|
    D|-1-|---|-3-|
    A|---|---|---|X
    E|-1-|---|---|R
Frets  7   8   9

Bm6 - B minor sixth (1-b3-5-6)

Spelling: 1st(B), b3rd(D), 5th(F#), 6th(G#)
          Bm6  
    e|---|-3-|---|
    B|---|---|---|
    G|-1-|---|---|
    D|---|---|---|
    A|---|-2-|---|R
    E|---|---|---|X
Frets  1   2   3
          Bm6
    e|---|---|-4-|
    B|---|-2-|---|
    G|---|---|-3-|
    D|---|---|(3)|X
    A|-1-|---|---|R
    E|---|---|---|X
Frets  2   3   4
          Bm6    
    e|-1-|---|---|
    B|-1-|---|-4-|
    G|-1-|---|---|
    D|-1-|---|-3-|
    A|-1-|---|-2-|
    E|-1-|---|---|R
Frets  7   8   9

B9 - B ninth (1-3-5-b7-9)

Spelling: 1st(B), 3rd(D#), 5th(F#), b7th(A), 9th(C#)
            B9 
    e|---|(4)|---|---|X
    B|---|-4-|---|---|
    G|---|-3-|---|---|
    D|-1-|---|---|---|
    A|---|-2-|---|---|R
    E|---|---|---|---|X
Frets  1   2   3   4
          B9    
    e|---|---|---|X
    B|---|---|-4-|
    G|---|-2-|---|
    D|---|---|-3-|
    A|---|-1-|---|
    E|---|---|---|X
Frets  5   6   7
          B9
    e|---|---|-4-|R
    B|---|---|-3-|
    G|---|-1-|---|
    D|---|---|-2-|
    A|---|---|---|X
    E|---|---|---|X
Frets  5   6   7

Bm9 - B minor ninth (1-b3-5-b7-9)

Spelling: 1st(B), b3rd(D), 5th(F#), b7th(A), 9th(C#)
            Bm9 
    e|---|(4)|---|---|X
    B|---|-3-|---|---|
    G|---|-2-|---|---|
    D|---|---|---|---|
    A|---|-1-|---|---|R
    E|---|---|---|---|X
Frets  1   2   3   4
          Bm9    
    e|---|---|---|X
    B|---|---|---|X
    G|---|-2-|---|
    D|---|---|-4-|
    A|-1-|---|---|
    E|---|---|-3-|R
Frets  5   6   7
          Bm9
    e|---|---|-4-|
    B|-1-|---|---|
    G|-1-|---|---|
    D|-1-|---|---|
    A|-1-|---|-3-|
    E|-1-|---|---|R
Frets  7   8   9

Bmaj9 (B  ⃤  9 ) - B major ninth (1-3-5-7-9)

Spelling: 1st(B), 3rd(D#), 5th(F#), 7th(A#), 9th(C#)
         Bmaj9 
    e|---|---|---|X
    B|---|-3-|---|
    G|---|---|-4-|
    D|-1-|---|---|
    A|---|-2-|---|R
    E|---|---|---|X
Frets  1   2   3
         Bmaj9    
    e|---|---|---|X
    B|---|---|---|X
    G|-1-|---|---|
    D|-1-|---|-3-|
    A|-1-|---|---|
    E|---|-2-|---|R
Frets  6   7   8
           Bmaj9
    e|-1-|---|---|---|
    B|-1-|-2-|---|---|
    G|-1-|---|---|---|
    D|---|---|---|-4-|R
    A|---|---|---|---|X
    E|---|---|---|---|X
Frets  6   7   8   9

B6/9 - B six 9 OR B major sixth added ninth (1-3-5-6-9)

Spelling: 1st(B), 3rd(D#), 5th(F#), 6th(G#), 9th(C#)
           B6/9 
    e|---|-4-|---|---|
    B|---|-3-|---|---|
    G|-1-|---|---|---|
    D|-1-|---|---|---|
    A|---|-2-|---|---|R
    E|---|---|---|---|X
Frets  1   2   3   4
         B6/9    
    e|---|-4-|---| 
    B|---|-3-|---|
    G|-1-|---|---|
    D|-1-|---|---|
    A|-1-|---|---|
    E|---|-2-|---|R
Frets  6   7   8
         B6/9
    e|---|-4-|---|
    B|---|-3-|---|
    G|-1-|---|---|
    D|---|-2-|---|R
    A|---|---|---|X
    E|---|---|---|X
Frets  8   9  10

B7+9 - B seventh augmented ninth (1-3-5-b7-#9)

Spelling: 1st(B), 3rd(D#), 5th(F#), b7th(A), 9th(D)
         B7+9 
    e|---|---|---|X
    B|---|---|-4-|
    G|---|-3-|---|
    D|-1-|---|---|
    A|---|-2-|---|R
    E|---|---|---|X
Frets  1   2   3   5
         B7+9    
    e|---|---|---|X 
    B|---|-3-|---|
    G|---|-3-|---|
    D|---|-3-|---|
    A|-1-|---|---|
    E|---|-2-|---|R
Frets  6   7   8
         B7+9
    e|---|---|---|-4-|
    B|-1-|---|---|---|
    G|-1-|-2-|---|---|
    D|-1-|---|---|---|
    A|-1-|---|-3-|---|
    E|-1-|---|---|---|R
Frets  7   8   9  10

B7-9 B seventh flat nine or B seventh minor ninth (1-3-5-b7-b9)

Spelling: 1st(B), 3rd(D#), 5th(F#), b7th(A), 9th(C)
         B7-9 
    e|---|---|---|X
    B|-1-|---|---|
    G|-1-|-3-|---|
    D|-1-|---|---|
    A|---|-2-|---|R
    E|---|---|---|X
Frets  1   2   3
         B7-9    
    e|---|---|---|X
    B|---|---|---|X
    G|-1-|---|---|
    D|---|---|-4-|
    A|---|-2-|---|
    E|---|---|-3-|R
Frets  5   6   7
         B7-9
    e|---|-3-|---|
    B|-1-|---|---|
    G|-1-|-2-|---|
    D|-1-|---|---|
    A|---|---|---|X
    E|-1-|---|---|R
Frets  7   8   9

Baug (B+) - B augmented (1-3-#5)

Spelling: 1st(B), 3rd(D#), #5th(G)
         Baug 
    e|---|---|---|X
    B|-1-|---|---|
    G|-1-|---|---|
    D|---|-2-|---|
    A|---|---|-3-|
    E|---|---|---|X
Frets        ← 2
             ← 6
             ← 10

Note: Start 3rd finger 
on frets 2, 6 or 10 and
work backwards with 
fingers 2 and 1. 
           Baug    
    e|---|---|---|---|X
    B|---|---|---|---|X
    G|-1-|---|---|---|
    D|---|-2-|---|---|
    A|---|---|-3-|---|
    E|---|---|---|-4-|
Frets            ← 3 
                 ← 7
                 ← 11  

Note: Start 4th finger 
on frets 3, 7 or 11 and
work backwards with 
fingers 3, 2 and 1.
         Baug
    e|-1-|---|---|
    B|---|-3-|---|
    G|---|-2-|---|
    D|---|---|-4-|
    A|---|---|---|X
    E|---|---|---|X
Frets  3 →
       7 →
      11 →
       
Note: Start 1st finger 
on frets 3, 7 or 11
and proceed normally
as illustrated.
More on augmented chords and why they can be played using similar shapes in a variety of positions.

B7+5 - B seventh augmented fifth (1-3-#5-b7)

Spelling: 1st(B), 3rd(D#), #5th(G), b7th(A)
         B7+5 
    e|---|---|-4-|
    B|---|---|---|R
    G|---|---|---|
    D|-1-|---|---|
    A|---|---|---|
    E|---|---|---|X
Frets  1   2   3
           B7+5    
    e|---|-2-|---|---|
    B|---|---|-3-|---|
    G|-1-|---|---|---|
    D|-1-|---|---|-4-|
    A|-1-|---|---|---|R
    E|---|---|---|---|X
Frets  2   3   4   5
         B7+5
    e|-1-|---|---|
    B|-1-|-3-|---|
    G|-1-|-2-|---|
    D|-1-|---|---|
    A|---|---|---|X
    E|-1-|---|---|R
Frets  7   8   9

Bdim (Bº) - B diminished (1-b3-b5)

Spelling: 1st(B), b3rd(D), b5th(F)
         Bdim 
    e|---|---|---|X
    B|---|-3-|---|
    G|---|---|-4-|
    D|---|-2-|---|
    A|-1-|---|---|R
    E|---|---|---|X
Frets  2   3   4
         Bdim    
    e|---|---|---|X
    B|---|---|---|X
    G|-2-|---|---|
    D|---|---|-4-|
    A|---|-3-|---|
    E|-1-|---|---|R
Frets  7   8   9
           Bdim
    e|---|-3-|---|---|
    B|-1-|---|---|---|
    G|---|-2-|---|---|
    D|---|---|---|-4-|R
    A|---|---|---|---|X
    E|---|---|---|---|X
Frets  6   7   8   9

Bdim7 (Bº7) - B diminished seventh (1-b3-b5-bb7)

Spelling: 1st(B), b3rd(D), b5th(F), bb7th(Ab)
         Bdim7 
    e|---|---|---|X
    B|---|---|---|X
    G|---|-3-|---|
    D|-1-|---|---|
    A|---|---|-4-|
    E|---|-2-|---|
Frets      ↑ 
1, 4, 7, 10

Note: Start 2nd finger 
on frets 1, 4, 7 or 10 
and follow the shape. 
         Bdim7    
    e|---|---|---|X
    B|---|---|-4-|
    G|-1-|---|---|
    D|---|---|-3-|
    A|---|-2-|---|
    E|---|---|---|X
Frets      ↑ 
2, 5, 8, 11  

Note: Start 2nd finger 
on frets 2, 5, 8 or 11 
and follow the shape.
         Bdim7
    e|---|-4-|---|
    B|-2-|---|---|
    G|---|-3-|---|
    D|-1-|---|---|
    A|---|---|---|X
    E|---|---|---|X
Frets      ↑ 
1, 4, 7, 10

Note: Start 3rd finger 
on frets 1, 4, 7 or 10 
and follow the shape.
More on diminished 7th chords and why they can be played using similar shapes in a variety of positions.

B-5 B diminished fifth (1-3-b5)

Spelling: 1st(B), 3rd(D#), b5th(F)
            B-5
    e|---|---|---|---|X
    B|---|---|---|-4-|
    G|---|---|---|-3-|
    D|---|---|-2-|---|
    A|---|-1-|---|---|R
    E|---|---|---|---|X
Frets  1   2   3   4
            B-5
    e|---|-2-|---|---|
    B|-1-|---|---|---|
    G|---|---|-3-|---|
    D|---|---|---|-4-|R
    A|---|---|---|---|X
    E|---|---|---|---|X
Frets  6   7   8   9
             B-5    
    e|---|---|-3-|---|
    B|---|---|---|-4-|R
    G|---|-2-|---|---|
    D|-1-|---|---|---|
    A|---|---|---|---|X
    E|---|---|---|---|X
Frets  9  10  11  12

B7-5 B seventh diminished fifth (1-3-b5-b7)

Spelling: 1st(B), 3rd(D#), b5th(F), b7th(A)
           B7-5
    e|---|---|---|---|X
    B|---|---|---|-3-|
    G|---|-1-|---|---|
    D|---|-1-|-2-|---|
    A|---|-1-|---|---|R
    E|---|---|---|---|X
Frets  1   2   3   4
           B7-5
    e|---|-3-|---|---|R
    B|-1-|---|---|---|
    G|---|---|-4-|---|
    D|---|-2-|---|---|
    A|---|---|---|---|X
    E|---|---|---|---|X
Frets  6   7   8   9
           B7-5    
    e|---|---|-4-|---|
    B|---|-3-|---|---|
    G|---|-2-|---|---|
    D|-1-|---|---|---|R
    A|---|---|---|---|X
    E|---|---|---|---|X
Frets  9  10  11  12

B9-5 B ninth diminished fifth (1-3-b5-b7-9)

Spelling: 1st(B), 3rd(D#), b5th(F), b7th(A), 9th(C#)
         B9-5
    e|-1-|---|---|
    B|-1-|-4-|---|
    G|-1-|-3-|---|
    D|-1-|---|---|
    A|-1-|-2-|---|R
    E|-1-|---|---|
Frets  1   2   3
         B9-5
    e|---|-4-|---|
    B|-1-|---|---|
    G|-1-|---|---|
    D|-1-|-3-|---|
    A|-1-|---|---|
    E|---|-2-|---|R
Frets  6   7   8
         B9-5    
    e|-1-|---|---|
    B|-1-|-3-|---|
    G|-1-|-2-|---|
    D|-1-|---|---|R
    A|---|---|---|X
    E|---|---|---|X
Frets  9  10  11

B11 - B eleventh (1-3-5-b7-9-11)

Spelling: 1st(B), 3rd(D#), 5th(F#), b7th(A), 9th(C#), 11th(E)
          B11
    e|---|-1-|---|
    B|---|-1-|---|
    G|---|-1-|---|
    D|---|-1-|---|
    A|---|-1-|---|R
    E|---|---|---|X
Frets  1   2   3
          B11
    e|-1-|---|---|
    B|-1-|---|---|
    G|---|-2-|---|
    D|---|---|-4-|
    A|---|---|---|X
    E|---|---|-3-|R
Frets  5   6   7
          B11    
    e|-1-|---|---|
    B|-1-|-2-|---|
    G|-1-|---|---|
    D|-1-|---|---|R
    A|---|---|---|X
    E|---|---|---|X
Frets  9  10  11

B13 - B thirteenth (1-3-5-b7-9-11)

Spelling: 1st(B), 3rd(D#), 5th(F#), b7th(A), 9th(C#), 13th(G#)
            B13
    e|---|---|---|-4-|
    B|---|-3-|---|---|
    G|---|-3-|---|---|
    D|-1-|---|---|---|
    A|---|-2-|---|---|R
    E|---|(2)|---|---|X
Frets  1   2   3   4
            B13
    e|-1-|---|---|---|
    B|-1-|---|---|---|
    G|---|---|-2-|---|
    D|---|---|---|-4-|
    A|---|---|---|---|X
    E|---|---|---|-3-|R
Frets  4   5   6   7
          B13    
    e|---|---|-4-|
    B|---|---|-3-|
    G|---|-2-|---|
    D|-1-|---|---|
    A|---|---|---|X
    E|-1-|---|---|R
Frets  7   8   9
Back to Guitar Chords

Contact Me


 RSS Icon